Oops, an error
Loading. Please wait.

Roundabout Bass Tab

version 1
version 1

Whole song

Interactive

  • The guitar's parts are redistribuite and correct... all sounds like it should be.
by Yes
1,471,967 views 912 this week
12 commentsread comments
1 2 3 4 5
excellent!
x 28
add to favorites
launch autoscroll
font size
0
reset
guitar tuner
Autoscroll
slow
fast
+/-
esc
set tempo
stop
Help us to improve Ultimate-Guitar.com Take our survey!
×
Roundabout
                                      Yes
                                                      Transcribed by Justin Benz


    Guitar          0:45
G|-------------------|---------------------------------------||------------------|
D|-------------------|----------------------------------0h2--||*-----------------|
A|-------------------|--------------------------0h2--x-------||*-----------------|
E|-------------------|--0-----0--2--x--x--3--x---------------||---0--x--x--2-----|

G|--------------------------||-----------------------------|-----------------|----|
D|--------------------0h2--*||-----------------------------|-----4--7--------|----|
A|------------0h2--x-------*||--------------------2--3--5--|--7--------------|----|
E|x--x--3--x----------------||--0--x--x--3--5--5-----------|-----------------|----|

G|------------|--------------|---------------------------------------|------------|
D|------------|--------------|----------------------------------0h2--|------------|
A|2-----------|--------------|--------------------------0h2--x-------|------------|
E|------5-----|--3-----3-----|--0-----0--2--x--x--3--x---------------|--0--x------|


                                                                        1:25
G|-------------------------------|---------------------------------------|--------|
D|--------------------------0h2--|---------------------------------------|--------|
A|------------------0h2--x-------|-----------------------------0--2------|--------|
E|x--2--x--x--3--x---------------|--0--x--x--2--x--x--3--x--x------------|--0-----|

G|----------------------------------||--------------------------------------------|
D|-----------------------------0h2--||*----------------------------------0h2------|
A|---------------------0h2--x-------||*--------------------------0h2--x-----------|
E|---0--2--x--x--3--x---------------||---0--x--x--2--x--x--3--x-------------------|

G|-||--------------------------|-----------------|--------------|-----------------|
D|*||--------------------------|-----4--7--------|--------------|--------3--2-----|
A|*||-----------------2--3--5--|--7--------------|--2-----------|-----------------|
E|-||--0--2--3--5--5-----------|-----------------|--------5-----|--3--------------|

                                        Bass Out           1:58
G|-----------------------|---------------|------------------|--------------------|
D|-----------------------|---------------|------------------|--------------------|
A|--5-----3-----2--3--5--|---------------|------------------|--------------------|
E|-----------------------|--3------------|------------------|--3-----3-----3-----|

G|------------------------------|--------------------------------------|----------|
D|------------------------------|--------------------------------------|----------|
A|------------------------------|--------------------------------------|----------|
E|---3--3--3-----3--3-----1--0--|--3-----3-----3--0--3--1-----0--1--0--|--3-------|

G|---------------------------------------|----------------------------------------|
D|---------------------------------------|----------------------------------------|
A|---------------------------------------|----------------------------------------|
E|3-----3--0--1--3-----3-----3--3--1--0--|--3-----3-----3--0--3--1-----1--3--0----|

G|---|--------------|---------------------------------------|---------------------|
D|---|--2-----------|----------------------------------0h2--|---------------------|
A|---|--------------|--------------------------0h2--x-------|---------------------|
E|---|--------------|--0-----0--2--x--x--3--x---------------|--0--x--x--2--x------|

G|----------------------|--------------------------------------|------------------|
D|-----------------0h2--|--------------------------------------|------------------|
A|---------0h2--x-------|-----------------------------0--2-----|------------------|
E|x--3--x---------------|--0--x--x--2--x--x--3--x--------------|--0-----0--2------|

G|-------------------------|---------------------------------------|--------------|
D|--------------------0h2--|----------------------------------0h2--|--------------|
A|------------0h2--x-------|--------------------------0h2--x-------|-----3--3-----|
E|x--x--3--x---------------|--0--x--x--2--x--x--3--x---------------|--------------|

                             2:29
G|---------|------------------||-----------------------------------------||-------|
D|---------|------------------||*----------------------------------0h2--*||-------|
A|---2-----|--0---------------||*--------------------------0h2--x-------*||-------|
E|---------|--------3-----2---||---0--x--x--2--x--x--3--x----------------||--0----|

G|------------------------|--------------|--------------|--------------|----------|
D|------------------------|-----4--7-----|--------------|--------3--2--|----------|
A|---------------2--3--5--|--7-----------|--2-----------|--------------|--5-------|
E|x--x--3--5--5-----------|--------------|--------5-----|--3-----------|----------|

G|---------------|-----------------|-----------------|--------------------|-------|
D|---------------|-----------------|-----------------|--------------------|-------|
A|3-----2--3--5--|-----------------|-----------------|--------------------|-------|
E|---------------|--3-----------1--|--3--3--3-----1--|--3--3--3-----1--3--|--1----|

G|------------|-----------------|-----------------|--------------------|----------|
D|------------|-----------------|-----------------|--------------------|----------|
A|------------|-----------------|-----------------|--------------------|----------|
E|1--------1--|--3--3--3-----1--|--3--3--3-----1--|--3--3--3-----1--3--|--1-------|

G|---------|-----------------------------------------|----------------------------|
D|---------|-----------------------------------------|----------------------------|
A|---------|-----------------------------------------|----------------------------|
E|0--1--2--|--3-----3-----3--3-----3--3--3--3--1--0--|--3-----3-----3--0--3--1----|

G|------------|-----------------------|-------------------------------|-----------|
D|------------|-----------------------|-------------------5-----5--5--|-----------|
A|------------|-----------------------|-----5-----5--5h7--------------|--5--7-----|
E|---0--1--0--|--3-----3-----3--3--3--|--7----------------------------|-----------|

G|------------------|--------------|--------------|--------------------|----------|
D|5-----3--------3--|--------------|--2-----------|--------------------|----------|
A|------------5-----|--------------|--------------|-----3--3-----2-----|--0-------|
E|------------------|--0-----------|--------------|--------------------|----------|

           3:25
G|----------||---------------------|--------------------|--------------------|----|
D|----------||*--------------------|--------------------|--------------------|----|
A|----------||*-----------0--------|--2--0-----0--------|--2--0-----0--------|----|
E|3-----2---||---0--2--3-----------|--------3-----------|--------3-----3--2--|----|

G|--------------||--------------------|--------------------|----------------------|
D|-------------*||--------------------|--------------------|----------------------|
A|-------------*||-----------0--------|--2--0-----0--------|--2--0-----0----------|
E|3p2p0---------||--0--2--3-----------|--------3-----------|--------3-----3--2----|

                                  4:36
G|------------16--16--16--14--16---|--------------------|------------------------|
D|---------------------------------|--------------------|------------------------|
A|---------------------------------|-----------0--0--2--|--2--0-----0--2--4------|
E|--3p2p0--------------------------|--0--2--3-----------|--------3---------------|

G|--------------------|-----------16--16--16--14--16--|--------------------|-----|
D|--------------------|-------------------------------|--------------------|-----|
A|--2--0-----0--------|-------------------------------|-----------0--0--2--|-----|
E|--------3-----3--2--|--p2p0-------------------------|--0--2--3-----------|-----|

G|------------------|--------------------|---------------------|------------------|
D|------------------|--------------------|---------------------|------------------|
A|2--0-----0--2--4--|--2--0-----0--------|------------2-----2--|------------------|
E|------3-----------|--------3-----3--2--|--3p2p0--------------|------------------|

  Guitar & Vocals    5:40
G|--------------------|--------------------------|-----------------|--------------|
D|--------------------|--------------------2-----|--2h3p2h3p2h3p2--|--5-----3-----|
A|--------------------|--1-----3-----5-----------|-----------------|--------------|
E|--------------------|--------------------------|-----------------|--------------|

                 Organ Solo
G|------------|------------------|-----------------------|------------------------|
D|---------1--|------------------|-----------------------|------------------------|
A|---1--1-----|------------------|-----------------------|------------------------|
E|------------|---3-----------1--|--3--3--3-----1--1--1--|--3--3--3--------1------|

G|--------------------|--------------------------------------|-------------------|
D|--------------------|--------------------------------------|-------------------|
A|--------------------|--------------------------------------|-------------------|
E|--3--3--3--------1--|--3--0--3-----3--0--3-----1--0--1--0--|--3-----3-----3----|

G|---------------------------|-----------------------------------|----------------|
D|---------------------------|-----------------------------------|----------------|
A|---------------------------|-----------------------------------|----------------|
E|0-----3--3-----3--3--1--0--|--3-----3-----3--0--3--1--0--1--0--|--3-----3-------|

G|---------------------------------|----------------------------------------------|
D|---------------------------------|----------------------------------------------|
A|---------------------------------|----------------------------------------------|
E|3--0--1--3-----3-----3--3--1--0--|--3-----3-----3--0--3--1--1--1--0-------------|

  6:15 (fast)
G|-||---------------------------------------------------|-------------------------|
D|-||*--------------------------------------------------|--3--3--3--3--5--5--5----|
A|-||*--------------2--2--2--2--3--3--3--3--5--5--5--5--|-------------------------|
E|-||---3--3--3--3--------------------------------------|-------------------------|

G|---3--3--3--3---------------||--------------------------------------------------|
D|5--------------3--3--3--3--*||--------------------------------------------------|
A|---------------------------*||--------------2--2--2--2--3--3--3--3--5--5--5-----|
E|----------------------------||--3--3--3--3--------------------------------------|

G|---|--------------------------3--3-----3\---|-----------------------------------|
D|---|--3--3--3--3--5--5--5--5--------5-------|-----------------------------------|
A|5--|----------------------------------------|-----------------------------------|
E|---|----------------------------------------|--3-----3-----3--0--1--3-----3-----|

G|---------------|-----------------------------------|----------------------------|
D|---------------|-----------------------------------|----------------------------|
A|---------------|-----------------------------------|----------------------------|
E|---3--3--0--1--|--3--3-----3-----3--0--1--0--1--0--|--1--3-----3-----3-----3----|

G|---------------------|-----------------------------------||---------------------|
D|---------------------|-----------------------------------||*--------------------|
A|---------------------|-----------------------------------||*--------------2-----|
E|---3-----3--3--1--0--|--3-----3-----3--0--3--1--0--1--0--||---3--3--3--3--------|

G|---------------------------------|--------------------------3--3--3--3----------|
D|---------------------------------|--3--3--3--3--5--5--5--5--------------3--3----|
A|2--2--2--3--3--3--3--5--5--5--5--|----------------------------------------------|
E|---------------------------------|----------------------------------------------|

G|-------||--------------------------------------------------|--------------------|
D|3--3--*||--------------------------------------------------|--3--3--3--3--5-----|
A|------*||--------------2--2--2--2--3--3--3--3--5--5--5--5--|--------------------|
E|-------||--3--3--3--3--------------------------------------|--------------------|

G|---------3--3--3--3--3-----|-----------------------|----------------------------|
D|5--5--5--------------------|-----------------------|------------------7---------|
A|---------------------------|--0-----2-----3--5-----|--7-----7--8--10------------|
E|---------------------------|-----------------------|----------------------------|

                                       7:05
G|------------7--9-----|--11------------|----------------------------------------|
D|--9--10--------------|----------------|----------------------------------0-----|
A|---------------------|----------------|--------------------------0h2--x--------|
E|---------------------|----------------|--0-----0--2--x--x--3--x----------------|

G|----||-----------------------------------------||-------------------------------|
D|h2--||*----------------------------------0h2--*||-------------------------------|
A|----||*--------------------------0h2--x-------*||--------------------2--3--5----|
E|----||---0--x--x--2--x--x--3--x----------------||--0--x--x--3--5--5-------------|

G|--------------|--------------|-----------------------------|-------------------|
D|-----4--7-----|--------------|--------3--2-----------------|-------------------|
A|--7-----------|--2-----------|--------------5--3--2--3--5--|-------------------|
E|--------------|--------5-----|--3--------------------------|--3-----------1----|

G|--------------------|-----------------------------------|----------------------|
D|--------------------|-----------------------------------|----------------------|
A|--------------------|-----------------------------------|----------------------|
E|--3--3--3--------1--|--3--3--3-----0--0--3--1--1-----1--|--3--3--3--------1----|

G|--------------------|-----------------------------------|----------------------|
D|--------------------|-----------------------------------|----------------------|
A|--------------------|-----------------------------------|----------------------|
E|--3--3--3--------1--|--3-----3-----3--0--3--1--0--1--0--|--3--3--3-----3--3----|

G|---------------------|-----------------------------------|----------------------|
D|---------------------|-----------------------------------|----------------------|
A|------2--------------|-----------------------------------|----------------------|
E|---3-----3--3--1--0--|--3-----3-----3--0--3--1--0--1--0--|--3-----3-----3--0----|

  Oh Yeah!
G|----------------------------|-----------------------------------|---------------|
D|----------------------------|-----------------------------------|---------------|
A|----------------------------|-----------------------------------|---------------|
E|----1--3-----0-----3-----0--|--3-----3-----3--0--3--1-----1--3--|--0------------|

                       Phew!!!
G|---|---------------------------||-----------------------------------------------|
D|---|--2------------------------||-----------------------------------------------|
A|---|---------------------------||-----------------------------------------------|
E|---|---------------------------||-----------------------------------------------|


================================================================================
==           Created with a shareware version of the BUCKET 'O TAB            ==
==                  tablature creation software for Windows                   ==
==                           For more information:                            ==
==                          email: gse@ocsystems.com                          ==
==      US Mail: The Bucket, 3176-B5 Summit Square Dr., Oakton, VA 22124      ==
================================================================================



************************************

| x  Dead note
| h  Hammer-on
| p  Pull-off
| \  Slide down

************************************
Suggest correction
What's this?
You can suggest a correction to this tab. Community and Mods will review your correction and vote to approve or reject it.
comments
print report bad tab
12 comments total. Showing first comments. show 2 bad comments
0 reply
matx33 268 wrote on January 18 2006, 02:05 pm

greatest bass line ever. great job on it

guest
You may want to rate the tab now too:
select rating
Please do not post tabs as comments. Select "correction" instead!