Oops, an error
Loading. Please wait.
We have an official Roundabout tab made by UG professional guitarists. Check out the tab »
×
by Yes
42,027 views 117 this week
12 commentsread comments
1 2 3 4 5
x 28
add to favorites
×
Save as Personal and add changes to this tab that will be seen only by you. Learn more ›
×
You can save this tab as Personal to edit and correct it or add notes. All changes will be seen only by you. Learn more »
launch autoscroll
font size
0
reset
how to read this tab
guitar tuner
backing track
0:00
0:00
edit
Autoscroll
slow
fast
+/-
esc
set tempo
stop
Name - Mickey Ursitti
Location - Whippany NJ 
I play - American Strat 
Email - Dummyup21@aol.com
 
I have seen this tab with at least 5 unplayed notes in the song...
so if u want it to be played right here you go ...

Band - Yes 
Song - Roundabout

You need to listen to get the notes to match with the timing its really simple


Intro 
..........................................................

e |----<12>-----------------------------------------------
B |--<12>-----12-10h12p10---------10----------------------
G |<12>----------------------11---------------------------
D |-------------------------------------------------------
A |-------------------------------------------------------
E |-------------------------------------------------------

..........................................................

e |---------<12>------------------------------------------ 
B |-------<12>------12-10h12p10--------------------------- 
G |-----<12>-----------------------11--------------------- 
D |--------------------------------------9h10h12---------- 
A |----------------------------------------------9h10h12--             
E |<12>--------------------------------------------------8

..........................................................

e |---------<12>------------------------------------------
B |-------<12>-----12-10h12p10------------10--------------
G |-----<12>----------------------11--------------11------
D |-------------------------------------------------------
A |-------------------------------------------------------
E |<12>---------------------------------------------------
                                                           
..........................................................

            
            
Suggest correction
Creating personal tab
Creating personal tab
You can edit any tab online and save it as your Personal.

You can edit, replace or remove any tab part or add personal notes – all changes will be seen only by you.

Personal tabs can be accessed anytime from any device, even offline.
Learn more »
comments
print report bad tab
12 comments total. Showing first comments.
0 reply
mrdeetag 50 Sep 06, 2004 08:00 PM

was looking good, but wheres the other 2 minutes of the intro?

0 reply
rnrigfts 10 Dec 08, 2005 12:02 PM

good so far but where is the rest of the intro

0 reply
JasonShredder 10 Mar 05, 2007 04:19 PM

notes are non accurate

guest
Wanna post a correction for this tab? Suggest correction