Oops, an error
Loading. Please wait.

Roundabout Tab

version 2
version 2

Intro

Whole song

Interactive

Video

by Yes
9,591 views 66 this week
no commentswrite comment
1 2 3 4 5
x 6
add to favorites
launch autoscroll
font size
0
reset
how to read this tab
guitar tuner
Autoscroll
slow
fast
+/-
esc
set tempo
stop
Help us to improve Ultimate-Guitar.com Take our survey!
×
Author
ROUNDABOUT – Yes
(Anderson & Howe)
Fragile [1971]
Tabbed by: varannion
Email:     dm_hughes1@hotmail.com
Tuning: standard

                                                                        nh --
                 (D)              (C)            (G/B) (Am)  (G)   (F#m)(Em)
e|--------2----|-(2)--3--3p2p0-----0-----------|-----------------------------|
B|-------------|----------------3-----3--1--0--|--3--0--1-----0--------<12>--|
G|-------------|-------------------------------|-----------2-----0--2--------|
D|--------0----|-(0)---------------------------|-----------------------------|
A|-------------|-------------------3-----------|--2-----0--------------------|
E|-------------|-------------------------------|--------------3-----2--------|

e|---------<12>------------------|-------------<12>-(<12>)-------------|
B|--(<12>)-<12>--<7>--<12>--<7>--|--<12>--<7>--------------------------|
G|---------------<7>--<12>--<7>--|--<12>--<7>--------------------------|
D|-------------------------------|-------------------------------------|
A|-------------------------------|-------------------------------------|
E|-------------------------------|--------------------------0--0--0----|

           nh -------------------------------
e|--------<7>------------------<12>--|-(<12>)------------------------------------|
B|--------<7>--<7>--<12>--<7>--<12>--|-(<12>)------------------------------------|
G|-------------<7>--<12>--<7>--------|-------------------------------------------|
D|-----------------------------------|-------------------------2p0---------------|
A|-----------------------------------|------------------------------2----2p0-----|
E|---(0)-----------------------------|---------0--0--0----0-------------------0--|

      -----------------------------------------------------
e|----<12>--<12>------------------|-------------<12>-(<12>)-------------|
B|----<12>--<12>--<7>--<12>--<7>--|--<12>--<7>--------------------------|
G|----------------<7>--<12>--<7>--|--<12>--<7>--------------------------|
D|--------------------------------|-------------------------------------|
A|--------------------------------|-------------------------------------|
E|--------------------------------|--------------------------0--0--0----|

           nh -------------------------------
e|--------<7>------------------<12>--|-(<12>)------------------------------------|
B|--------<7>--<7>--<12>--<7>--<12>--|-(<12>)------------------------------------|
G|-------------<7>--<12>--<7>--------|-------------------------------------------|
D|-----------------------------------|-------------------------2p0---------------|
A|-----------------------------------|------------------------------2----2p0-----|
E|---(0)-----------------------------|---------0--0--0----0-------------------0--|


************************************

| (n)  Ghost note
| p    Pull-off

************************************
Suggest correction
comments
print report bad tab
guest
You may want to rate the tab now too:
select rating
Wanna post a correction for this tab? Suggest correction