Oops, an error
Loading. Please wait.

Starship Trooper Tab

version 1
version 1

Solo

Whole song

Interactive

by Yes
17,545 views 42 this week
1 commentread comment
1 2 3 4 5
excellent!
x 5
add to favorites
launch autoscroll
font size
0
reset
how to read this tab
guitar tuner
Autoscroll
slow
fast
+/-
esc
set tempo
stop
Help us to improve Ultimate-Guitar.com Take our survey!
×
**********************************************************************
                                YES
                       STARSHIP TROOPER (WÜRM)
**********************************************************************

Guitarist: Steve Howe
Tab by Devin Miller

I do have this in guitar pro, but UG wouldn't accept it, probably
because they receive many files that have been copied from sheet
music.  I transcribed the solo myself, but they still wouldn't, so
here it is on note pad, and I understand its difficult to learn from
this, so if you want the guitar pro tab just e-mail me.  Enjoy
anyways!


| /  slide up (to)
| \  slide down (to)
| s  legato slide
| h  hammer-on
| b  bend to following note pitch in brackets
| r  release bend from note pitch in brackets
| p  pull-off
| ~  vibrato
| x  dead note

**********************************************************************

Underlying chord progression:

     G     D#    C
e|--10-----6-----3----|
B|---8-----4-----1----|
G|---0-----0-----0----|
D|---9-----5-----2----|
A|---x-----x-----x----|
E|--10-----6-----3----|

Solo (roughly transcribed for 1 guitar):

e|---------10--------------------------------------------------------|
B|-10b(12)----(12)r10-8h10-8h10p8s6s8s4--4-6-4-6h8-5-----------------|
G|-----------------------------------------------------7b(9)r7--5----|
D|----------------------------------------------------------------7--|
A|-------------------------------------------------------------------|
E|-------------------------------------------------------------------|

  --------------------------------------------------------6h8p6------|
  ------------------------------------------------4p3/8---------8----|
  -7p5----7p5----5-p2--2h5p2p0--------0-2-0-3p2-3--------------------|
  -----7------7----------------0-------------------------------------|
  -------------------------------------------------------------------|
  -------------------------------------------------------------------|

  -8s10-8-10s12-10-12s15---12h15p12----12-----------|
  ----------------------------------15----15-13-15--|
  --------------------------------------------------|
  --------------------------------------------------|
  --------------------------------------------------|
  --------------------------------------------------|

  ---------10-----------------------11s13------13-13h15-12h15p15--|
  -10b(12)----(12)r10-8-10-11p10-11---------16--------------------|
  ----------------------------------------------------------------|
  ----------------------------------------------------------------|
  ----------------------------------------------------------------|
  ----------------------------------------------------------------|

  ----------15-------------------------------|
  -15b(17)-----(17)r15p12--------------------|
  ------------------------14-12----12-14-12--|
  -------------------------------------------|
  -------------------------------------------|
  -------------------------------------------|

  ----------------------------------8-----|
  -------------------4h5---4h5-8h10---10--|
  -2b(3)-0-[etc...]------5----------------|
  ----------------------------------------|
  ----------------------------------------|
  ----------------------------------------|

  -17b(19)---17b(19)r17--15-13-15h18p15p13-15---13-11h13--|
  --------------------------------------------------------|
  --------------------------------------------------------|
  --------------------------------------------------------|
  --------------------------------------------------------|
  --------------------------------------------------------|

  -10h11p10s8-10---8-6h8p6---6----6------6---|
  -------------------------8---8------8------|
  -------------------------------------------|
  -------------------------------------------|
  -------------------------------------------|
  -------------------------------------------|

  -17b(19)----17b(19)--15h18p15----15-----------15-x---15------15-------|
  ------------------------------18----18b(20)------15--18b(20)-18b(20)--|
  -------------------------------------------------x--------------------|
  ----------------------------------------------------------------------|
  ----------------------------------------------------------------------|
  ----------------------------------------------------------------------|

  -15--------------------------12----10--8--8--8----|
  -16b(18)-[5-times]--x------------------8--8--8----|
  --------------------x--11h12----10-----9--9--9----|
  --------------------x--12-------12-----10-10-10---|
  --------------------x-----------------------------|
  --------------------------------------------------|

  -----------x-----15-----15-----15---------15--|
  -13b(15)-----13b----13b----13b----16b(18)-----|
  ----------------------------------------------|
  ----------------------------------------------|
  ----------------------------------------------|
  ----------------------------------------------|

  -12h15p12-11p10p8-10p8--10----8--6--8--8----------------|
  ------------------------------------8--10b(11)-8--------|
  --------------------------------------------------9--7--|
  --------------------------------------------------------|
  --------------------------------------------------------|
  --------------------------------------------------------|

  -----------------------15----------------------------------------|
  --------------------------------------------------6p4b-----------|
  --------------------------16p15p14p13s12-------------------------|
  -------0---------------------------------------5--------5h7--5---|
  ------------------------------------------5h6--------------------|
  -5b(7)---(7)r5--3-5-6--------------------------------------------|

  -----------------------------------------------------------------|
  -----------------------------------------------------------------|
  -2b(3)--0------------------7b(9)--r7-----------------3-----3-----|
  ----------5p3p0--3-p2-----------------5--------3h4h5-------------|
  ----------------------3-------------------5--7----------6-----6--|
  -----------------------------------------------------------------|

  --------------------------------------------|
  --------------------------------------------|
  -3---1---3--1h3p1p0-------------------------|
  --------------------5--[fade-out.....]------|
  --------------------------------------------|
  --------------------------------------------|

I was able to transcribe pretty accurately because I use the function
on Windows Media Player that allows to slow the song by half.  You
should use it if you're having trouble getting it in normal time!
========================================================================
Suggest correction
comments
print report bad tab
1 comment total.
0 reply
Martinns2 10 wrote on July 26 2016, 08:50 pm

Hello, i would like the guitarpro version of the tab please. My email is aktivitetsdag.volleyball@gmail.com

guest
You may want to rate the tab now too:
select rating
Please do not post tabs as comments. Select "correction" instead!