Oops, an error
Loading. Please wait.

Survival Tab

version 1
version 1

Intro

Interactive

by Yes
5,177 views 6 this week
3 commentsread comments
1 2 3 4 5
x 3
add to favorites
launch autoscroll
font size
0
reset
how to read this tab
guitar tuner
Autoscroll
slow
fast
+/-
esc
set tempo
stop
Help us to improve Ultimate-Guitar.com Take our survey!
×
***** Listen to recording for timing, this is my first time and I didn't bother
      to tab things in rhythm*****


 Guitar 1 w/phaser

  riff 1                   Cmaj7
|-------------------------------------------------------------|
|----------------------0--0-----------------------------------|
|----------------------4--4-----------------------------------|
|------5-----7---------2--2-----------------------------------|
|---7-----5------3--3--3--3-----------------------------------|
|-------------------------------------------------------------|

 Guitar w/organ in unison

  riff 2 
|-------------------------------------|
|-------------5-----------------------|
|-------4-4-4---4-4-7-----4-----------|
|---5-7---------------7-7---5-5-------|
|-------------------------------------|
|-------------------------------------|
 last couple times has a harmony of 3rds on the last 3 notes..



 Guitar harmony in 10th's w/volume pedal

  riff 3
|--7---10---8--5---7--3--5--2------|
|----------------------------------|
|----------------------------------|
|--5---9----7--4---5--2--4--0------|
|----------------------------------|
|----------------------------------|
after this goes back riff 2 and fades into..


 chords backing intro acoustic solo
|--0---///--0--///--------|
|--7---///--0--///--------|
|--7---///--6--///--------|
|--5---///--7--///--------|
|--7---///--7--///--------|
|-----------5--///--------|

  solo
|--12-12---12-12-12---12-12-12----12--12-12------------------------|
|--------------------------------------------10-10-----------------|
|--------9----------9----------9---9---9--9--------9--9--9---------|
|--------------------------------------------7--7-----------7--7---|
|--------------------------------------------------7--7--7---------|
|-----------------------------------------------------------5--5---|
  dynamically...

|--7---------------------------------------------------------|
|----0-7-10-7----------------------12-12-12------------------|
|-------------7-7-7----6-6------------------11---------------|
|--------------------------9-9-7---9--9--9-------------------|
|-------------------------------------------9----------------|
|------------------------------------------------------------|
 this i will finish someday... it is difficult hearing 12 string solos without one..
Suggest correction
Give kudos to tab author, rate the tab!
1 2 3 4 5
comments
print report bad tab
3 comments total.
0 reply
Cheesecake2112 10 Jul 10, 2007 02:57 PM

Great tab but I found this to be more like the intro

|------------------------------------------------------------------|
|---------------------------0--0-----------------------------------|
|---------------------------4--4-----------------------------------|
|------5--7-----------------2--2-----------------------------------|
|---7--------5--7--9--3--3--3--3-----------------------------------|
|------------------------------------------------------------------|

0 reply
bazdesh 137 Mar 13, 2011 03:42 AM

 "riff 2"

|--------------0---------------------|
|-------0-0-0-----0-0-3-----0--------|
|---0-2-----------------2-2---0-0----|
|------------------------------------|
|------------------------------------|
|------------------------------------|

"backing chords"

|----0------0-----|
|----0------0-----|
|---11------6-----|
|---12------7-----|
|---10------7-----|
|-----------------|

0 reply
bazdesh 137 Mar 14, 2011 03:19 PM

and.. the first riff is played by Chris with awesome badass bass ! :D

guest
You may want to rate the tab now too:
select rating
Wanna post a correction for this tab? Suggest correction