Oops, an error
Loading. Please wait.

Tempus Fugit Tab

version 1
version 1

Whole song

Interactive

by Yes
5,947 views 24 this week
no commentswrite comment
1 2 3 4 5
please rate
add to favorites
launch autoscroll
font size
0
reset
how to read this tab
guitar tuner
Autoscroll
slow
fast
+/-
esc
set tempo
stop
Help us to improve Ultimate-Guitar.com Take our survey!
×
Author
Difficulty
intermediate
99% correct so far


e|------------------------------------------7----|
B|--10--9--7------8--7--5------6--5--3------7----|
G|--9---9--8------7--7--6------5--5--4------9----|
D|--11--9--9------9--7--7------7--5--5------7----|
A|------------------------------------------9----|
E|------------------------------------------7----|

e|------------------------------------------5-5---7----|
B|--10--9--7------8--7--5------6--5--3------5-5---7----|
G|--9---9--8------7--7--6------5--5--4------7-7---9----|
D|--11--9--9------9--7--7------7--5--5------7-7---7----|
A|------------------------------------------x-x---9----|
E|------------------------------------------5-5---7----|

e|---------------------------------|
B|---------------------------------|
G|-------------------------9-6-7---|
D|-----------------9-6-7-----------|
A|---------9-6-7-------------------|
E|-9-6-7---------------------------|

e|--10------------------12-----19-17-----------------|
B|---------12-10---------------------20---19-20-19---|
G|---------------12-11-------------------------------|
D|---------------------------------------------------|
A|---------------------------------------------------|
E|---------------------------------------------------|

e|----------------------------------------7-------7---------------------|
B|-x-x-12---x-x-10---x-x-10---x-x-8-------8-------7-------5-------7-----|
G|-x-x-12---x-x-11---x-x-9----x-x-7-------9-------7-------5-------7-----|
D|-x-x-14---x-x-12---x-x-11---x-x-9-------9-------9---x-x-5---x-x-7-----|
A|------------------------------------x-x-7---x-x-9---x-x-3---x-x-5-----|
E|------------------------------------x-x-0---x-x-7---------------------|

e|------7-------7-------5-------3---------7-------7---|
B|------8-------7-------5-------3---------8-------7---|
G|------9-------7-------6-------4---------9-------7---|
D|------9-------9-------7-------5---------9-------9---|
A|--x-x-7---x-x-9---x-x-7---x-x-5-----x-x-7---x-x-9---|
E|--x-x-0---x-x-7---x-x-5---x-x-3-----x-x-0---x-x-7---|

e|----------------------------------------|
B|----------------------------------------|
G|-----------------------------10-7-8-----|
D|--------------------10-7-8--------------|
A|-----------10-7-8-----------------------|
E|--10-7-8--------------------------------|

e|-------------------------------------------------------------------------|
B|-------------------------------------------------------------------------|
G|-------------------------------------------------------------------------|
D|-------------------0----------2-0-----2-0-----2-0-----2-0-----2-0--------|
A|-------------0--2------4--0-------4-------4-------4-------4-------4---0--|
E|--0---2--3---------------------------------------------------------------|

e|-3-----------------------5--3-----------------------9---7-----------------------5--3---|
B|-5-----------------------7--5-----------------------10--8-----------------------7--5---|
G|-4-----------------------6--4-----------------------11--9-----------------------6--4---|
D|-5-----------------------7--5-----------------------11--9-----------------------7--5---|
A|-0-0-0-0-0-0-0-0-0-0-0-0-0--0-0-0-0-0-0-0-0-0-0-0-0-0---0-0-0-0-0-0-0-0-0-0-0-0-0--0---|
E|---------------------------------------------------------------------------------------|

e|---------------------------------------------------------|
B|---------------------------------------------------------|
G|---------------------------------------------------------|
D|---------------------------------0-----2-0---------------|
A|-0-0-0-0-0-0-0-0-1-2---------0-2---4-0-----4-2-0---------|
E|----------------------0--2-3---------------------3-2-0---|

e|------7-------7-------5-------3---|
B|------8-------7-------5-------3---|
G|------9-------7-------6-------4---|Repeat
D|------9-------9-------7-------5---|
A|--x-x-7---x-x-9---x-x-7---x-x-5---|
E|--x-x-0---x-x-7---x-x-5---x-x-3---|

e|-------------------------------------------------------|
B|-------------------------------------------------------|
G|-------------------------------------------------------|
D|-------------------0--------2--0-----------------------|
A|-------------0--2-----4--0--------4--2--0--------------|
E|--0----2--3--------------------------------4--2--0-----|

e|----------------------------------------------------------------|
B|----------------------------------------------------------------|
G|-------------------------10-7-8-----------------------8-5-6-----|
D|-----------------10-7-8------------------------8-5-6------------|
A|---------10-7-8-------------------------8-5-6-------------------|
E|-10-7-8--------------------------8-5-6--------------------------|

e|---------------------------------------------------|
B|---------------------------------------------------|
G|----------------------6-3-4------------------------|
D|---------------6-3-4-----------------------5-2-3---|
A|--------6-3-4-----------------------5-2-3----------|
E|-6-3-4-----------------------5-2-3-----------------|

e|----------------------------------------------------------------|
B|----------------------------------------------------------------|
G|-------------------------10-7-8-----------------------8-5-6-----|
D|-----------------10-7-8------------------------8-5-6------------|
A|---------10-7-8-------------------------8-5-6-------------------|
E|-10-7-8--------------------------8-5-6--------------------------|

e|----------------------------------------------------------|
B|----------------------------------------------------------|
G|----------------------6-3-4-----------------------9-7-----|
D|---------------6-3-4-----------------------9-6-7----------|
A|--------6-3-4-----------------------9-6-7-----------------|
E|-6-3-4-----------------------9-6-7------------------------|
Suggest correction
What's this?
You can suggest a correction to this tab. Community and Mods will review your correction and vote to approve or reject it.
comments
We did not receive enough feedback on this tab! Please rate:
print report bad tab
1 2 3 4 5
guest
You may want to rate the tab now too:
select rating
Please do not post tabs as comments. Select "correction" instead!