Oops, an error
Loading. Please wait.

Turn Of The Century tab

version 1
version 1

Whole song

by Yes
355 views 15 this week
1 commentread comment
1 2 3 4 5
2 more votes to show rating
add to favorites
×
Save as Personal and add changes to this tab that will be seen only by you. Learn more ›
×
You can save this tab as Personal to edit and correct it or add notes. All changes will be seen only by you. Learn more »
launch autoscroll
font size
0
reset
how to read this tab
guitar tuner
edit
Autoscroll
slow
fast
+/-
esc
set tempo
stop
Author
Difficulty
Turn of the Century 


        H  q  q  e  e     q   e   e  eq  e     q   e   e
e|------0--------r-----|--10--8---7--/5-----|----------7--|-----------|
B|------1-----1--e--5--|-----------------5--|--8---8------|-----------|
G|--4:--4--------s-----|--------------------|-------------|-----------|
D|--4:--2--2-----t-----|--12--10--9--57-----|----------9--|-----------|
A|------0-----------7--|-----------------7--|--10--10-----|-----------|
E|---------------------|--------------------|-------------|-----------|


 q   e   e   Q  e      H  e  s  s     Q   s  s  Q  s  s
e|13--12--10--7--8---|--5--r--------|---------------------|-------------|
B|-------------------|-----e--6--8--|--10--8--6--5--------|-------------|
G|10-----------------|-----s--------|---------------5--7--|-------------|
D|----14--12--9--10--|--7--t--------|---------------------|-------------|
A|-------------------|--------------|---------------------|-------------|
E|-------------------|--------------|---------------------|-------------|


 e q  e  e  q^ q^ q^    e  e  e  e  q  s s e  s^s^s^ H
e|--------------------|-----------------7h8p7--7h8p7------|-------------|
B|3/5-----------------|--5--6--5----------------------10--|-------------|
G|-----7--5--4--------|-----------7--5--------------------|-------------|
D|--------------5--7--|-----------------------------------|-------------|
A|--------------------|-----------------------------------|-------------|
E|--------------------|-----------------------------------|-------------|


  q   s  s  e  s  s  Q     q  q  q  h     e2  q  e  q     H  e
e|10--8--7--5--5--3--0--|--5--3--------|---------------|--------|-------|
B|----------------------|--------3-----|--10--8--6--5--|--5--5--|-------|
G|----------------------|-----------4--|---------------|--------|-------|
D|----------------------|--------------|--10--9--7--5--|--5-----|-------|
A|----------------------|--------------|---------------|-----7--|-------|
E|----------------------|--------------|---------------|--------|-------|


  q  h     e  e  e  e  h     e6e   e  e   e   e  e  e   e     w
e|------|-----------------|----8---8-----------------------|-----|------|
B|6--6--|--------------8--|--8h10--8-----------------------|-----|------|
G|---7--|-----------7-----|-----------10----------------7--|--9--|------|
D|------|--9--7--5--------|---------------10--7--9--10-----|-----|------|
A|8-----|-----------------|--------------------------------|-----|------|
E|------|-----------------|--------------------------------|-----|------|


  q   q      W      s^ s^ s^ e  e  s  s  h     q  e  e  e
e|13--12--|--10--|--------------------------|--------------|------------|
B|--------|------|-----------6--5-----------|--------------|------------|
G|14--12--|--10--|--------7--------7--5-----|--------------|------------|
D|--------|------|-----7-----------------7--|--5-----------|------------|
A|--------|------|--0-----------------------|-----7--5--7--|------------|
E|--------|------|--------------------------|--------------|------------|


  e  e  e  h     ee  H     e4 e  e   e   e   q   q      w
e|------------|--/5--3--|--12h13p12--12--10--8---10--|--12--|-----------|
B|---------6--|---------|----------------------------|------|-----------|
G|------7-----|---------|----------------------------|------|-----------|
D|---7--------|--57--5--|--14-15-14--14--12--10--12--|--14--|-----------|
A|8-----------|---------|----------------------------|------|-----------|
E|------------|---------|----------------------------|------|-----------|


  q   e   e  ee  e  e     ee   h  e     q^ q^ q^ q  q
e|10--8---7--35--------|-------------|-----------------|----------------|
B|---------------------|--/10--8--5--|--8--6--3--6--5--|----------------|
G|---------------------|-------------|-----------------|----------------|
D|12--10--9--/7--------|--57---5-----|--5--------------|----------------|
A|---------------7-----|----------7--|-----8--5--8--7--|----------------|
E|------------------8--|-------------|-----------------|----------------|


  w  h  h      e  e  e  e  h     Q  Q  q     e2h  s  s  e  e  e
e|----------|--r--------------|-----------|----------------------|------|
B|1---------|--e--3--5--6--3--|--1--0-----|-------5--6--5--------|------|
G|---0--12--|--s--------------|-----0--0--|--0h2-----------7--5--|------|
D|2---------|--t--0-----------|--2--------|----------------------|------|
A|0---------|-----------------|--3--------|----------------------|------|
E|----------|-----------------|-----------|----------------------|------|
      < >

  e  s  s  s  s  e  s  s  e  e  e
e|r--------------------------------|------------------------------------|
B|e--6--5-----6--5--6--5-----3-----|------------------------------------|
G|s--------7--------------7-----4--|------------------------------------|
D|t--------------------------------|------------------------------------|
A|---------------------------------|------------------------------------|
E|---------------------------------|------------------------------------|


  e  s  s  s  s  s  s  s  s  e  e  e     q  H
e|------------------------------------|--------|------------------------|
B|---------5--------5--------5--3-----|--------|------------------------|
G|---5--7-----5--7-----5--7--------2--|--------|------------------------|
D|3-----------------------------------|--0--0--|------------------------|
A|------------------------------------|--2-----|------------------------|
E|------------------------------------|--------|------------------------|


  e4 e  e   e   e   q   e  e  e
e|12h13p12--12--10--8---7--------|--------------------------------------|
B|-------------------------------|--------------------------------------|
G|-------------------------7--9--|--------------------------------------|
D|14-15-14--14--12--10--9--------|--------------------------------------|
A|-------------------------------|--------------------------------------|
E|-------------------------------|--------------------------------------|


  e  h   e  s   s   e   e   e  s  s     q   q   q^ q^  q^
e|-------r----------13--17--r--------|------8---7---------|-------------|
B|6--10--e--15--17----------e--------|-------------8---5--|-------------|
G|-------s------------------s--7--9--|--10----------------|-------------|
D|-------t------------------t--------|------10--9---------|-------------|
A|-----------------------------------|-------------10--7--|-------------|
E|-----------------------------------|--------------------|-------------|


  q^  q^ q^ q  q     Q  q  e  e  e     e  e  e  h
e|----------------|-----------------|-----------1--|--------------------|
B|8---6--5--3--1--|-----------------|--------3-----|--------------------|
G|----------------|--2--0-----------|-----2--------|--------------------|
D|----------------|--------2--0--2--|--3-----------|--------------------|
A|10--8--7--5--3--|-----------------|--------------|--------------------|
E|----------------|-----------------|--------------|--------------------|


  q  e  e  e  e  e  e     Q4 e  e  e  q     e  e  e   h
e|r-----------------5--|-----------------|------------12--|-------------|
B|e--------------8-----|-----8--6--5--3--|----------------|-------------|
G|s-----------7--------|--7-----------5--|--------12------|-------------|
D|t--9--7--5-----------|-----7-----------|-----2----------|-------------|
A|---------------------|-----------------|--3-------------|-------------|
E|---------------------|-----------------|----------------|-------------|
                                                < > < >

  e  e  e   h      e  q^  q^  h      q8  q  q  q     w
e|--------------|--r----------12--|---------------|-----|---------------|
B|----------12--|--e--------------|------------7--|--5--|---------------|
G|------12------|--s------12------|---------7-----|-----|---------------|
D|---2----------|--t--------------|--12--0--------|-----|---------------|
A|3-------------|-----------------|---------------|-----|---------------|
E|--------------|-----12----------|---------------|-----|---------------|
      < > < >       < > < > < >    < >    < >< >   < >

  e  e  e   h      e   e  e   h      q2 h      q        w
e|----------12--|-----------------|--r--12--|--0--|-----r-----|---------|
B|--------------|-------------12--|--e------|--1--|-----e-----|---------|
G|------12------|---------12------|--s------|--2--|-----s-----|---------|
D|9-------------|------9----------|--t------|--2--|-----t-----|---------|
A|---7----------|--10-------------|---------|-----|-----------|---------|
E|--------------|-----------------|---------|--1--|-----------|---------|
      < > < >           < > < >    < >

     w        h6 s^ s^ s^ e  e  s  s  h     e  e  e
e|---r-----|--r--------------------------|-----------|------------------|
B|---e-----|--e-----------6--5-----------|-----------|------------------|
G|---s-----|--s--------7--------7--5-----|-----------|------------------|
D|---t-----|--t-----7-----------------7--|-----------|------------------|
A|---------|-----0-----------------------|--7--5--7--|------------------|
E|---------|-----------------------------|-----------|------------------|


  e  e  e  h     ee  H
e|------------|--/5--3--|-----------------------------------------------|
B|---------6--|---------|-----------------------------------------------|
G|------7-----|---------|-----------------------------------------------|
D|---7--------|--57--5--|-----------------------------------------------|
A|8-----------|---------|-----------------------------------------------|
E|------------|---------|-----------------------------------------------|


  s^ s^ s^  e  s^ s^ s^  s^ s^ s^  s^s^ s^ e  s^ s^ s^
e|13h15p13--r--12h13p12--10h12p10--8h10p8--r--10h12p10--|---------------|
B|----------e------------------------------e------------|---------------|
G|----------s------------------------------s------------|---------------|
D|----------t------------------------------t------------|---------------|
A|------------------------------------------------------|---------------|
E|------------------------------------------------------|---------------|


  s^ s^  Q      q   e   e  ee  e  e     ee   h  e
e|12h15--12--|--10--8---7--35--------|-------------|--------------------|
B|-----------|-----------------------|--/10--8--5--|--------------------|
G|-----------|-----------------------|-------------|--------------------|
D|-----------|--12--10--9--/7--------|--57---5-----|--------------------|
A|-----------|-----------------7-----|----------7--|--------------------|
E|-----------|--------------------8--|-------------|--------------------|


  q^  q^ q^ q  q     w     e  e  e  h     h  Q  q
e|----------------|-----|--r-----------|-----------|--------------------|
B|8---6--3--6--5--|--1--|--e-----5--6--|--3--------|--------------------|
G|----------------|-----|--s-----------|--5--4-----|--------------------|
D|----------------|-----|--t--0--------|--------5--|--------------------|
A|10--8--5--8--7--|--3--|--------------|-----------|--------------------|
E|----------------|-----|--------------|-----------|--------------------|


  e8 Q  s s  e  e  e    e  H     q  e  e  e s s  e     e w
e|--------------------|-------|---------------------|-------|-----------|
B|------5h6--5--------|----5--|--6--8--6--5h6p5--3--|--3p0--|-----------|
G|--------------7--5--|/7-----|---------------------|-------|-----------|
D|5--7----------------|-------|---------------------|-------|-----------|
A|--------------------|-------|---------------------|-------|-----------|
E|--------------------|-------|---------------------|-------|-----------|


  q2 e  e  q  e  s  s     e  h   e  s   s      e   h   e  s  s
e|------------r--------|---------r----------|--13--17--r--------|-------|
B|6--5--3--1--e--------|--6--10--e--15--17--|----------e--------|-------|
G|------------s--7--9--|---------s----------|----------s--------|-------|
D|3--2--------t--------|---------t----------|----------t--------|-------|
A|------5--3-----------|--------------------|-------------5--7--|-------|
E|---------------------|--------------------|-------------------|-------|


  q  q   q  q      q^  q^ q^ q  e  s  s     e  h  e  s  s
e|---8---7------|---------------r--------|-----5--r--------|------------|
B|----------8---|--8---6--5--3--e--------|--5-----e--------|------------|
G|--------------|---------------s--5--7--|--------s--5--7--|------------|
D|---10--9------|---------------t--------|--------t--------|------------|
A|8---------10--|--10--8--7--5-----------|-----------------|------------|
E|--------------|------------------------|-----------------|------------|


  e  h  e  s  s     q  q   q  q      e0  e   e   e  q  q
e|---7--r--------|-----8---7------|-----------------------|-------------|
B|5-----e--------|--5---------8---|--8---10--8---6--5--3--|-------------|
G|------s--5--7--|----------------|-----------------------|-------------|
D|------t--------|-----10--9------|-----------------------|-------------|
A|---------------|------------10--|--10--12--10--8--7--5--|-------------|
E|---------------|----------------|-----------------------|-------------|


  e  s  s  s  s  s  s  s  s  e  e  e
e|r--------r--------r--------r--------|---------------------------------|
B|e--6--5--e--6--5--e--6--5--e--3-----|---------------------------------|
G|s--------s--------s--------s-----4--|---------------------------------|
D|t--------t--------t--------t--------|---------------------------------|
A|------------------------------------|---------------------------------|
E|------------------------------------|---------------------------------|


       e  s  s  s  s  s  s  e  e     q  q  q  q
e|--------------r--------r--------|--------------|----------------------|
B|-----5--6--5--e--6--5--e--3-----|--------------|----------------------|
G|--------------s--------s-----2--|--------------|----------------------|
D|(3)-----------t--------t--------|--5--0--5--0--|----------------------|
A|--------------------------------|--------------|----------------------|
E|--------------------------------|--------------|----------------------|


  q4  e   e   q   q     e  s^ s^ E  h     e  e  e  e  q  e  e
e|13--12--10--8---7--|-----------------|--r--------------------|--------|
B|-------------------|--6--5--6--5-----|--e-----5--6-----5--6--|--------|
G|-------------------|--------------5--|--s--7--------7--------|--------|
D|15--14--12--10--9--|-----------------|--t--------------------|--------|
A|-------------------|-----------------|-----------------------|--------|
E|-------------------|-----------------|-----------------------|--------|


  s^ s^ E  q  Q  s  s     e8 s  s  e  s  s  e  s  s  q
e|---------------------|--------------------------------|---------------|
B|5--6--5--3-----------|--------------------------------|---------------|
G|------------4--2--0--|--2-----------------------------|---------------|
D|---------------------|-----5--3--2--------------------|---------------|
A|---------------------|--------------5--3--2-----------|---------------|
E|---------------------|-----------------------5--3--0--|---------------|


  e  e  e   h      e  e  e  e  e  Q     q  e  e  q  e  e
e|----------12--|-----------------3--|--------------------|-------------|
B|--------------|--------------0-----|--1--1--1--3--3--3--|-------------|
G|------12------|-----------0--------|--2--2--2--2--2--2--|-------------|
D|---2----------|--------0-----------|--3--3--3-----------|-------------|
A|3-------------|-----2--------------|--1--1--1--3--3--3--|-------------|
E|--------------|--3-----------------|--------------------|-------------|
      < > < >

  q2 e  e  q  e  e     q  e  e  e  e  e  e     w     w     w6
e|------------------|-----------------------|-----|--0--|-----|---------|
B|3--3--3--3--3--3--|--3--3--3--3--3--3--3--|--1--|--0--|--4--|---------|
G|2--2--2--2--2--2--|--2--2--2--0--0--0--0--|--2--|--0--|--3--|---------|
D|0--0--0--2--2--2--|--3--3--3--0--0--0--0--|--2--|--2--|--5--|---------|
A|------------------|-----------------------|--0--|--2--|--6--|---------|
E|------------------|-----------------------|-----|--0--|-----|---------|


  w     e     s  s  e  s  s  e  s  s  e  s  s  e
e|1--|-----|--------------------------------------|---------------------|
B|1--|-----|-----1--------1--------1--------1-----|---------------------|
G|2--|-----|-----------------------------0--------|---------------------|
D|3--|-----|--0--------2--------3-----------------|---------------------|
A|3--|--3--|--------3--------3--------3--------3--|---------------------|
E|1--|-----|--------------------------------------|---------------------|


  s00s  e  s  s  e  s  s  e  s  s  e     w     w
e|------------------------------------|--0--|--r--|---------------------|
B|---1-----0--------1--------3--------|-----|--e--|---------------------|
G|2-----------2--------2--------2-----|-----|--s--|---------------------|
D|------------------------------------|-----|--t--|---------------------|
A|------3--------3--------3--------3--|-----|-----|---------------------|
E|------------------------------------|-----|-----|---------------------|

Electric Guitar
  w     wc    w   w/hdee^ge^oe^ e^ e^ e^    W
e|r--|--r--|--r--|--r--------------5--7--|--8--|------------------------|
B|e--|--e--|--e--|--e--3--5--7--8--------|-----|------------------------|
G|s--|--s--|--s--|--s--------------------|-----|------------------------|
D|t--|--t--|--t--|--t--------------------|-----|------------------------|
A|---|-----|-----|-----------------------|-----|------------------------|
E|---|-----|-----|-----------------------|-----|------------------------|


  e^8e^ e^ e^  e^ e^     w      e  e   e  h     w     w12   w
e|-------------8--10--|--12--|--r------------|-----|--r--|--r--|--------|
B|5--7--8--10---------|------|--e--10--8--7--|--8--|--e--|--e--|--------|
G|--------------------|------|--s------------|-----|--s--|--s--|--------|
D|--------------------|------|--t------------|-----|--t--|--t--|--------|
A|--------------------|------|---------------|-----|-----|-----|--------|
E|--------------------|------|---------------|-----|-----|-----|--------|


  w     q/ eoluqe pedalqswellsw16    q   e   e   q   q      w
e|r--|--r--12--------------|------|----------------------|------|-------|
B|e--|--e------15--13--12--|--12--|--13--15--13--12------|--15--|-------|
G|s--|--s------------------|------|------------------14--|------|-------|
D|t--|--t------------------|------|----------------------|------|-------|
A|---|---------------------|------|----------------------|------|-------|
E|---|---------------------|------|----------------------|------|-------|


  q   e   e   q   q      h20 w      s  s  q   s  s  q      W
e|12------------------|--14------|--20h22p20--19h20p19--|--17--|--------|
B|----15--13--12------|------15--|----------------------|------|--------|
G|----------------14--|----------|----------------------|------|--------|
D|--------------------|----------|----------------------|------|--------|
A|--------------------|----------|----------------------|------|--------|
E|--------------------|----------|----------------------|------|--------|


  e   q   s   s     h24h     q^ q^ q^  q^ q^ q^
e|---------------|--------|----------------------|----------------------|
B|13--12--10--8--|--7-----|----------------------|----------------------|
G|---------------|-----7--|----------------------|----------------------|
D|---------------|--------|------------7--9--10--|----------------------|
A|---------------|--------|--7--9--10------------|----------------------|
E|---------------|--------|----------------------|----------------------|


  q^  q^  q^  q^  q^  q^     q^  q^  q^  h      e28e   e   h
e|----------------12--14--|--15--17--19--20--|--r--19--20--22--|--------|
B|----12--13--15----------|------------------|--e--------------|--------|
G|14----------------------|------------------|--s--------------|--------|
D|------------------------|------------------|--t--------------|--------|
A|------------------------|------------------|-----------------|--------|
E|------------------------|------------------|-----------------|--------|


  e  e   e   h      h   q   q      h   h      h32h
e|r--12--14--15--|--15--14------|--14--12--|---------|------------------|
B|e--------------|----------15--|----------|--0--15--|------------------|
G|s--------------|--------------|----------|---------|------------------|
D|t--------------|--------------|----------|---------|------------------|
A|---------------|--------------|----------|---------|------------------|
E|---------------|--------------|----------|---------|------------------|


  q^  q^  q^  q^  q^  q^
e|------------19--20--22--|---------------------------------------------|
B|19--20--22--------------|---------------------------------------------|
G|------------------------|---------------------------------------------|
D|------------------------|---------------------------------------------|
A|------------------------|---------------------------------------------|
E|------------------------|---------------------------------------------|


 q^eeq^ qq^siq^mpq^v.q^ h  s  s  e  Q  s  s  e  Q  s  s  e  q  q^ q^
e|22--12--10--12--10--r--------------------------------------5----------|
B|--------------------e--------------5-----------8--------------8--7----|
G|--------------------s--5-----4--5--------4--5--------4--5-------------|
D|--------------------t-----7-----------7-----------7-------------------|
A|----------------------------------------------------------------------|
E|----------------------------------------------------------------------|


  e   e  s  s   q  s   s   e   Q   s   s   e   h
e|10--8--7---------------------12--------------15--|--------------------|
B|----------10--7------12--13----------12--13------|--------------------|
G|-----------------14--------------14--------------|--------------------|
D|-------------------------------------------------|--------------------|
A|-------------------------------------------------|--------------------|
E|-------------------------------------------------|--------------------|


  EarcEto s   s   h      E   E   s   s   E   E   s   s
e|20--19--17----------|----------------------------------|--------------|
B|------------20--17--|--17--15----------17--15----------|--------------|
G|--------------------|----------16--14----------16--14--|--------------|
D|--------------------|----------------------------------|--------------|
A|--------------------|----------------------------------|--------------|
E|--------------------|----------------------------------|--------------|


  E   E   s  s   q   e   e      w      e   e   e   q   s    Q
e|16--14-----------------14--|--16--|------16--17--21--21^--24--|-------|
B|--------17p14--14--17------|------|--19-----------------------|-------|
G|---------------------------|------|---------------------------|-------|
D|---------------------------|------|---------------------------|-------|
A|---------------------------|------|---------------------------|-------|
E|---------------------------|------|---------------------------|-------|


  e40s   s   s   s   s   s   s   s   s   s   s   s   s   s      w
e|r--21--19--21--19------------------------------------------|--r--|----|
B|e------------------21--19--21--19--17----------------------|--e--|----|
G|s--------------------------------------16--18--------------|--s--|----|
D|t----------------------------------------------18--16------|--t--|----|
A|-------------------------------------------------------19--|-----|----|
E|-----------------------------------------------------------|-----|----|


  h  e  s^ s^ s^  s^ s^ s^ s^ s^ s^    w
e|r--r------------------------------|-----|-----------------------------|
B|e--e--14p12p10--------------------|-----|-----------------------------|
G|s--s------------13p11p9-----------|-----|-----------------------------|
D|t--t---------------------13p11p9--|--9--|-----------------------------|
A|----------------------------------|-----|-----------------------------|
E|----------------------------------|-----|-----------------------------|


  h44e  s^ s^ s^  s^ s^ s^ s^ s^ s^    w
e|r--r------------------------------|------|----------------------------|
B|e--e--14p12p10--------------------|------|----------------------------|
G|s--s------------13p11p9-----------|------|----------------------------|
D|t--t---------------------13p11p9--|------|----------------------------|
A|----------------------------------|--11--|----------------------------|
E|----------------------------------|------|----------------------------|


  h  e  s^ s^ s^  s^ s^ s^ s^ s^ s^    w
e|r--r------------------------------|-----|-----------------------------|
B|e--e--14p12p10--------------------|-----|-----------------------------|
G|s--s------------13p11p9-----------|-----|-----------------------------|
D|t--t---------------------13p11p9--|--9--|-----------------------------|
A|----------------------------------|-----|-----------------------------|
E|----------------------------------|-----|-----------------------------|


  h48e  s^ s^ s^  s^ s^ s^ s^ s^ s^
e|r--r------------------------------|-----------------------------------|
B|e--e--14p12p10--------------------|-----------------------------------|
G|s--s------------13p11p9-----------|-----------------------------------|
D|t--t---------------------13p11p9--|-----------------------------------|
A|----------------------------------|-----------------------------------|
E|----------------------------------|-----------------------------------|


  e  e  e  e  e e  e e  e e  e
e|------------------------------|---------------------------------------|
B|---9--------7p0--5p0--7p0--5--|---------------------------------------|
G|------8--9--------------------|---------------------------------------|
D|------------------------------|---------------------------------------|
A|------------------------------|---------------------------------------|
E|9-----------------------------|---------------------------------------|


  e  s s  e  e   s  s  e   s s  e      s  s   e   s  s   e   h
e|---9p0---------12p9------1p9------|--14p11------16p11------14--|------|
B|--------9--10--------10-------10--|---------12---------12------|------|
G|----------------------------------|----------------------------|------|
D|----------------------------------|----------------------------|------|
A|9---------------------------------|----------------------------|------|
E|----------------------------------|----------------------------|------|


  e52 s   s   e   s   s   e   s   s   q
e|21--19--17------------------------------|-----------------------------|
B|------------21--19--17------------------|-----------------------------|
G|------------------------20--18--16------|-----------------------------|
D|------------------------------------18--|-----------------------------|
A|----------------------------------------|-----------------------------|
E|----------------------------------------|-----------------------------|


  H  s^s^s^ s^s^s^ s^s^s^     h   e  s^s^s^  s^s^s^  s^s^ s^
e|-------------------------|------r---------------------------|---------|
B|-----------------7h9h10--|--10--e------------------9h10h12--|---------|
G|----------6h8h9----------|------s----------8h9h11-----------|---------|
D|6--6h7h9-----------------|------t--7h9h11-------------------|---------|
A|-------------------------|----------------------------------|---------|
E|-------------------------|----------------------------------|---------|


  h^  e  s^s^ s^  s^s^ s^  s^ s^ s^
e|----r------------------------------|----------------------------------|
B|12--e--------------------10h12h14--|----------------------------------|
G|----s-----------9h11h13------------|----------------------------------|
D|----t--9h11h13---------------------|----------------------------------|
A|-----------------------------------|----------------------------------|
E|-----------------------------------|----------------------------------|


  Q56 s^ s^ s^  s^ s^ s^ s^ s^ s^    Q   S S s^ ss^s^ s^s^s^
e|--------------------------------|---------------------------|---------|
B|14--14p12p10--------------------|-------------------7h9h10--|---------|
G|--------------13p11p9-----------|-------------h8h9----------|---------|
D|-----------------------13p11p9--|------6h7h9----------------|---------|
A|--------------------------------|--11-----------------------|---------|
E|--------------------------------|---------------------------|---------|


  h^  s^ s^ s^  s^ s^ s^ s^ s^ s^
e|--------------------------------|-------------------------------------|
B|10--14p12p10--------------------|-------------------------------------|
G|--------------13p11p9-----------|-------------------------------------|
D|-----------------------13p11p9--|-------------------------------------|
A|--------------------------------|-------------------------------------|
E|--------------------------------|-------------------------------------|


  h  s^s^ s^  s^s^ s^  s^ s^ s^
e|-------------------------------|--------------------------------------|
B|---------------------10h12h14--|--------------------------------------|
G|------------9h11h13------------|--------------------------------------|
D|9--9h11h13---------------------|--------------------------------------|
A|-------------------------------|--------------------------------------|
E|-------------------------------|--------------------------------------|


  e60 s^s^ s^  s^s^ s^  s^ s^ s^
e|--------------------------------|-------------------------------------|
B|14--------------------10h12h14--|-------------------------------------|
G|-------------9h11h13------------|-------------------------------------|
D|----9h11h13---------------------|-------------------------------------|
A|--------------------------------|-------------------------------------|
E|--------------------------------|-------------------------------------|


  s^ s^ s^  s^ s^ s^ s^ s^ s^  s^ s^ s^
e|-----------------------------11h12h14--|------------------------------|
B|14p12p10-----------10h12h14------------|------------------------------|
G|----------13p11p9----------------------|------------------------------|
D|---------------------------------------|------------------------------|
A|---------------------------------------|------------------------------|
E|---------------------------------------|------------------------------|


  h   e  s^ s^ s^  s^ s^ s^  s^ s^ s^
e|16--r----------------------14h16h17--|--------------------------------|
B|----e------------14h16h17------------|--------------------------------|
G|----s--13h14h16----------------------|--------------------------------|
D|----t--------------------------------|--------------------------------|
A|-------------------------------------|--------------------------------|
E|-------------------------------------|--------------------------------|


  h   e  s^ s^ s^  s^ s^ s^  s^ s^ s^
e|17--r----------------------16h17h19--|--------------------------------|
B|----e------------16h17h19------------|--------------------------------|
G|----s--14h16h18----------------------|--------------------------------|
D|----t--------------------------------|--------------------------------|
A|-------------------------------------|--------------------------------|
E|-------------------------------------|--------------------------------|


  h   s^ s^ s^  s^ s^ s^  s^ s^ s^
e|19----------------------14h16h17--|-----------------------------------|
B|--------------14h16h17------------|-----------------------------------|
G|----13h14h16----------------------|-----------------------------------|
D|----------------------------------|-----------------------------------|
A|----------------------------------|-----------------------------------|
E|----------------------------------|-----------------------------------|


 e64 s^ s^ s^  s^ s^ s^  s^ s^ s^  e   s^ s^ s^  s^ s^ s^ s^ s^ s^
e|17----------------------14h16h17--17----------------------------------|
B|--------------14h16h17----------------14p12p10------------------------|
G|----13h14h16------------------------------------13p11p9---------------|
D|---------------------------------------------------------13p11p9------|
A|----------------------------------------------------------------------|
E|----------------------------------------------------------------------|

e|---------------------------------------------------------------------|
B|---------------------------------------------------------------------|
G|---------------------------------------------------------------------|
D|---------------------------------------------------------------------|
A|---------------------------------------------------------------------|
E|---------------------------------------------------------------------|


 e   s^ s^ s^  s^ s^ s^  s^ s^ s^  e   s^ s^ s^  s^ s^ s^ s^ s^ s^
e|------------------------12h14h16--16----------------------------------|
B|--------------12h14h16----------------14p12p10------------------------|
G|----11h13h14------------------------------------13p11p9---------------|
D|---------------------------------------------------------13p11p9------|
A|11--------------------------------------------------------------------|
E|----------------------------------------------------------------------|

e|---------------------------------------------------------------------|
B|---------------------------------------------------------------------|
G|---------------------------------------------------------------------|
D|---------------------------------------------------------------------|
A|---------------------------------------------------------------------|
E|---------------------------------------------------------------------|


 e   s^ s^ s^  s^ s^ s^  s^ s^ s^  e   s^ s^ s^  s^ s^ s^ s^ s^ s^
e|------------------------14h16h17--17----------------------------------|
B|--------------14h16h17----------------14p12p10------------------------|
G|----13h14h16------------------------------------13p11p9---------------|
D|---------------------------------------------------------13p11p9------|
A|12--------------------------------------------------------------------|
E|----------------------------------------------------------------------|

e|---------------------------------------------------------------------|
B|---------------------------------------------------------------------|
G|---------------------------------------------------------------------|
D|---------------------------------------------------------------------|
A|---------------------------------------------------------------------|
E|---------------------------------------------------------------------|


 e  s^ s^ s^  s^ s^ s^  s^ s^ s^  e   s^ s^ s^  s^ s^ s^  s^ s^ h
e|-----------------------16h17h19--19----------------------17h19h21-----|
B|-------------16h17h19--------------------------17h19h21---------------|
G|---14h16h18--------------------------16h18h20-------------------------|
D|9---------------------------------------------------------------------|
A|----------------------------------------------------------------------|
E|----------------------------------------------------------------------|


    e68e  e  e     e  e  e  e  e  e  e  e
e|--------------|--------------------------|---------------------------|
B|--------------|--------------------------|---------------------------|
G|--------------|-----4--------4--------6--|---------------------------|
D|--------4-----|--6--------4--------6-----|---------------------------|
A|-----6-----7--|--------6--------4--------|---------------------------|
E|--7-----------|--------------------------|---------------------------|


  e  e  e  e  e  e  e  e     e  e  e  e  e  e  e  e
e|------------------------|--------------------------|------------------|
B|------------------------|--------------------------|------------------|
G|------------------------|--------7--------7--------|------------------|
D|------4--------7--------|-----7--------7-----------|------------------|
A|---6--------7--------7--|--5--------4--------------|------------------|
E|7--------5--------4-----|--------------------7--5--|------------------|


  e72e  e  e  e  e  e  e     e  e  e  e  e  e  e  e
e|------------------------|--------------------------|------------------|
B|------------------------|--------------------------|------------------|
G|------------------------|-----4--------------------|------------------|
D|------4--6--------2-----|--------------------4-----|------------------|
A|---4-----------4--------|--4--------4-----6-----4--|------------------|
E|2-----------2--------2--|--------2-----7-----------|------------------|


  e  e  e  e  e  e  e  e     e  e  e  e  e  e  q
e|------------------------|-----------------------|---------------------|
B|------------------------|--------4--------4-----|---------------------|
G|---6--------------------|-----4--------4--------|---------------------|
D|6-----------4--------7--|--6--------4-----------|---------------------|
A|---------6--------7-----|--------------------6--|---------------------|
E|------7--------5--------|-----------------------|---------------------|


  e76 e  e  e  e  e  q     e  e  e  e  e  e  e  e
e|----------------------|--------------------------|--------------------|
B|-------8--------------|-----------------5--------|--------------------|
G|----9-----------7-----|--------4-----6--------6--|--------------------|
D|10--------9--9-----7--|-----6-----7--------6-----|--------------------|
A|----------------------|--7-----------------------|--------------------|
E|----------------------|--------------------------|--------------------|


  e  e  e  e  e  e  e  e         e  e  q
e|------------------------|---------------|-----------------------------|
B|5--------5--------------|---------------|-----------------------------|
G|------6-----------4-----|--2:-----------|-----------------------------|
D|---4-----------6--------|--4:--------4--|-----------------------------|
A|------------7--------7--|---------6-----|-----------------------------|
E|------------------------|------7--------|-----------------------------|


  180 e^ e^ e^ e^ e^ e^ e^ e^ e^ e^ e^ e^
e|----------------------------------------|-----------------------------|
B|----------------------------------------|-----------------------------|
G|4:-----------------------------4--------|-----------------------------|
D|4:--4--------6--------7-----------7-----|-----------------------------|
A|-------7--------7--------0--------------|-----------------------------|
E|----------0--------0--------0--------0--|-----------------------------|


  e^ e^ e^ e^ e^ e^ e^ e^ e^ e^ e^ e^    w     q  q   e   e   q
e|------------------------------------|--4--|--r--16--14--12--11--|-----|
B|---------4--------5--------7--------|-----|--e------------------|-----|
G|6-----------------------------------|-----|--s------------------|-----|
D|---7--------7--------7--------7-----|-----|--t------------------|-----|
A|------------------------------------|-----|---------------------|-----|
E|------0--------0--------0--------0--|-----|---------------------|-----|


  q   q   q   q      q   q   q   q      w     w  q  e  e  q
e|12------12------|--11------11------|--9--|-----4-----------|----------|
B|----14------14--|------12------12--|-----|--4-----7--5--4--|----------|
G|----------------|------------------|-----|--5--------------|----------|
D|----------------|--9---------------|-----|--4--------------|----------|
A|----------------|------------------|--0--|--6--------------|----------|
E|12--------------|------------------|-----|--4--------------|----------|


  q88e  e  q  e  e     q  e  e  q  q      h   e  e  e  e   e
e|------------------|--7-----7-----12--|--11--------9--11--12--|--------|
B|5--------5--------|------------------|-----------------------|--------|
G|---6--------6-----|--8--8------------|-----------------------|--------|
D|------6--------6--|-----------9--9---|--8--------------------|--------|
A|4--------4--------|------------------|------0--0-------------|--------|
E|------------------|--7---------------|-----------------------|--------|


  q^  s^  s^  s^  s^  e   e   e   e      q92 e   e   q   e   e
e|14--12--11--12--14--16--14--12--11--|--12----------12----------|------|
B|------------------------------------|------14----------14------|------|
G|------------------------------------|----------13----------13--|------|
D|------------------------------------|--11----------11----------|------|
A|------------------------------------|--------------------------|------|
E|------------------------------------|--------------------------|------|


  q   e   e   q   e   e      q^ q^ q^ e  e  e  e
e|11----------11----------|-----------------------|---------------------|
B|----12----------12------|--9--7--5--------------|---------------------|
G|--------11----------11--|-----------8--6--------|---------------------|
D|9-----------9-----------|--7--7--7--7--7--9--7--|---------------------|
A|------------------------|-----------------------|---------------------|
E|------------------------|-----------------------|---------------------|


  q  e  e  s S  e  e  e     q96e  e  q  e  e     q  e  e  q  e  e
e|---4--5--5h7--5--4-----|--4--------4--------|--7--------7--------|----|
B|--------------------7--|-----5--------5-----|--------------------|----|
G|-----------------------|--------6--------6--|-----8--------8-----|----|
D|6----------------------|--------------------|--------9--------9--|----|
A|-----------------------|--4--------4--------|--------------------|----|
E|4----------------------|--------------------|--7--------7--------|----|


  Q  e   s   s   s  s   s   s  s   s
e|9--11--12--11--9--------------------|---------------------------------|
B|------------------12--10--9---------|---------------------------------|
G|-----------------------------11--9--|---------------------------------|
D|------------------------------------|---------------------------------|
A|0-----------------------------------|---------------------------------|
E|------------------------------------|---------------------------------|


      s  s  s   s  s   s   s  s      200 q   e   e  e   e  e   e
e|-------------------------9--11--|------12--10--8------8----------|----|
B|--------------9--10--12---------|-----------------12-----12--10--|----|
G|2:--8--9--11--------------------|--4:----------------------------|----|
D|4:------------------------------|--4:--10------------------------|----|
A|--------------------------------|--------------------------------|----|
E|--------------------------------|--------------------------------|----|


      e   e   e   e  e          w
e|----8-----------8------|------0--||-----------------------------------|
B|--------12--10-----12--|------7--||-----------------------------------|
G|3:---------------------|--4:--4--||-----------------------------------|
D|4:--10-----------------|--4:--6--||-----------------------------------|
A|-----------------------|------7--||-----------------------------------|
E|-----------------------|------0--||-----------------------------------|



************************************

| r    Release
| /    Slide up
| t    Tapping
| s    Slap
| h    Hammer-on
| p    Pull-off
| >    Accented note
| (n)  Ghost note 

************************************
Suggest correction
Creating personal tab
Creating personal tab
You can edit any tab online and save it as your Personal.

You can edit, replace or remove any tab part or add personal notes – all changes will be seen only by you.

Personal tabs can be accessed anytime from any device, even offline.
Learn more »
Give kudos to tab author, rate the tab!
1 2 3 4 5
comments
print report bad tab
1 comment total.
0 reply
jhawrot1 10 Jun 11, 2017 11:55 AM

great song & tab

guest
You may want to rate the tab now too:
select rating
Wanna post a correction for this tab? Suggest correction