Oops, an error
Loading. Please wait.

Rise tab

by Yfriday
521 views 1 this week
1 commentread comment
1 2 3 4 5
1 last vote to show rating
add to favorites
×
Save as Personal and add changes to this tab that will be seen only by you. Learn more ›
×
You can save this tab as Personal to edit and correct it or add notes. All changes will be seen only by you. Learn more »
launch autoscroll
font size
0
reset
how to read this tab
guitar tuner
edit
Autoscroll
slow
fast
+/-
esc
set tempo
stop
Author
-------------------------------------------------------------------------------
                             rise - Y-friday
-------------------------------------------------------------------------------

Tuning:EADGBE

         G   G#  A  A#
e|--------------------------------------------------------------------------|
B|--------------------------------------------------------------------------|
G|--------------------------------------------------------------------------|
D|--------------------------------------------------------------------------|
A|--0----5---6---7---8---0--------------------------------------------------|
E|--0----3---4---5---6---0--------------------------------------------------|

then verse 1 is:

    A5
e|---------|
B|---------|
G|---------|
D|---------|
A|---7-----|
E|---5-----|

then the intro
then:

    B5
e|----------|
B|----------|
G|----------|
D|----------|
A|---9------|
E|---7------|

Chorus:
then it's the intro, then it's A5 then B5

verse 2:
then Intro then A5 and B5 (just a repeat of the first verse)

you will need to work out timing by listening to the song.

i can't figure out the rest of the song, i think it's all just A5 and B5 tho

It sounds about right

Suggest correction
Creating personal tab
Creating personal tab
You can edit any tab online and save it as your Personal.

You can edit, replace or remove any tab part or add personal notes – all changes will be seen only by you.

Personal tabs can be accessed anytime from any device, even offline.
Learn more »
Give kudos to tab author, rate the tab!
1 2 3 4 5
comments
print report bad tab
1 comment total.
0 reply
angusrokks 60 Oct 09, 2007 10:46 AM

Gettin ther chris

guest
You may want to rate the tab now too:
select rating
Wanna post a correction for this tab? Suggest correction