Oops, an error
Loading. Please wait.

I Need A Dime Tab

1,062 views 1 this week
1 commentread comment
1 2 3 4 5
1 last vote to show rating
add to favorites
launch autoscroll
font size
0
reset
how to read this tab
guitar tuner
Autoscroll
slow
fast
+/-
esc
set tempo
stop
Help us to improve Ultimate-Guitar.com Take our survey!
×
Author
e|-11-9--------11-9----9-11-------------------------------------------------
B|------11-9--------11------------------------------------------------------
G|-----------4--------------------------------------------------------------
D|--------------------------------------------------------------------------
A|--------------------------------------------------------------------------
E|--------------------------------------------------------------------------

plays throughout the whole song
Suggest correction
Give kudos to tab author, rate the tab!
1 2 3 4 5
comments
print report bad tab
1 comment total.
0 reply
kasinova182 10 Nov 17, 2005 06:34 PM

e|-11-9--------11-9----9-11-------------------------------------------
B|------11-9-4-------11-----------------------------------------------G|-------------------------------------------------------------------
D|--------------------------------------------------------------------
A|--------------------------------------------------------------------
E|--------------------------------------------------------------------

guest
You may want to rate the tab now too:
select rating
Wanna post a correction for this tab? Suggest correction