Oops, an error
Loading. Please wait.

Kiss The Rain Tab

version 1
version 1

Whole song

Interactive

179,060 views 72 this week
4 commentsread comments
1 2 3 4 5
x 6
add to favorites
launch autoscroll
font size
0
reset
how to read this tab
guitar tuner
Autoscroll
slow
fast
+/-
esc
set tempo
stop
Help us to improve Ultimate-Guitar.com Take our survey!
×
Author
Difficulty
intermediate
[Intro]
e|---------------7-7------7---|---------------10-10-------10-----|
B|------8/10-10---------------|------8/10-10---------------------|
G|--7-----------------7-------|--7--------------------7----------|
D|----------------------------|----------------------------------|
A|----------------------------|----------------------------------|
E|----------------------------|----------------------------------|

e|------10/12---12/14--14/15--15--------|--17--19--17--15--14--15--14-------|
B|--10----------------------------12----|--~--------~------------------12---|
G|--------------------------------------|-----------------------------------|
D|--------------------------------------|-----------------------------------|
A|--------------------------------------|-----------------------------------|
E|--------------------------------------|-----------------------------------|

e|--15--14------------------------------------|-------------------------------|
B|--12--12---14-14---14/16--16-----16----16---|---14--12-12--14--10-----10----|
G|--------------12----------------------------|----------------------7--------|
D|--------------------------16--16----16------|-------------------------------|
A|--------------------------------------------|-------------------------------|
E|--------------------------------------------|-------------------------------|

e|-----------------------------|-------------------------------------|
B|--8--10--12--12/13------13---|---15--13--12------12---8--10--------|
G|--------------------12-------|---------------12--------------------|
D|-----------------------------|-------------------------------------|
A|-----------------------------|-------------------------------------|
E|-----------------------------|-------------------------------------|

e|-----------------7-7------7-----7---|---------------10-10-------10-----|
B|-----8--8/10-10--------------7------|------8/10-10---------------------|
G|--7-------------------7-------------|--7--------------------7----------|
D|------------------------------------|----------------------------------|
A|------------------------------------|----------------------------------|
E|------------------------------------|----------------------------------|

e|------10/12---12/14--14/15--15--------|--17--19--17--15--14--15--14-------|
B|--10----------------------------12----|--~--------~------------------12---|
G|--------------------------------------|-----------------------------------|
D|--------------------------------------|-----------------------------------|
A|--------------------------------------|-----------------------------------|
E|--------------------------------------|-----------------------------------|

e|--15--14------------------------------------|-------------------------------|
B|--12--12---15-15---15/17--17-----17----17---|---15--13-13--15--15------15---|
G|--------------12----------------------------|----------------------12-------|
D|--------------------------17--17----17------|-------------------------------|
A|--------------------------------------------|-------------------------------|
E|--------------------------------------------|-------------------------------|

e|------------------------------------------------------------|
B|--8--10--12--12/13---8--10--7--8-----8-----8----------------|
G|---------------------------------7-----7--------------------|
D|------------------------------------------------------------|
A|------------------------------------------------------------|
E|------------------------------------------------------------|

[Verse]
e|-----7--10--12-----12----12----|------7--12--10---10---10------------|
B|--8----------------------------|---8------------8----8---------------|
G|----------------12----12-------|-------------------------------------|
D|-------------------------------|-------------------------------------|
A|-------------------------------|-------------------------------------|
E|-------------------------------|-------------------------------------|

e|-----7--10--8---7---5---3--5--7---7---7---|
B|--8-----------8---8-------------8---8-----|
G|------------------------------------------|
D|------------------------------------------|
A|------------------------------------------|
E|------------------------------------------|

e|-----7--10--12-----12----12----|---15--14--12--10---10---10--------|
B|--8------------10-----10-------|------------------8----8-----------|
G|-------------------------------|-----------------------------------|
D|-------------------------------|-----------------------------------|
A|-------------------------------|-----------------------------------|
E|-------------------------------|-----------------------------------|

e|--7h8/9-----8--7--8----8/10---10/12--14-15--19--17--------|
B|----------8---------8-------8-----------------------------|
G|----------------------------------------------------------|
D|----------------------------------------------------------|
A|----------------------------------------------------------|
E|----------------------------------------------------------|

[Chorus 1]
e|---------------7-7------7---|---------------10-10-------10----10---|
B|------8/10-10---------------|------8/10-10-----------------10------|
G|--7-----------------7-------|--7--------------------7--------------|
D|----------------------------|--------------------------------------|
A|----------------------------|--------------------------------------|
E|----------------------------|--------------------------------------|

e|------10/12---12/14--14/15--15--------|--17--19--17--15--14--15--14-------|
B|--10----------------------------12----|--~--------~------------------12---|
G|--------------------------------------|-----------------------------------|
D|--------------------------------------|-----------------------------------|
A|--------------------------------------|-----------------------------------|
E|--------------------------------------|-----------------------------------|

e|--15--14------------------------------------|-------------------------------|
B|--12--12---14-14---14/16--16-----16----16---|---14--12-12--14--10-----10----|
G|--------------12----------------------------|----------------------7--------|
D|--------------------------16--16----16------|-------------------------------|
A|--------------------------------------------|-------------------------------|
E|--------------------------------------------|-------------------------------|

e|-----------------------------|-------------------------------------|
B|--8--10--12--12/13------13---|---15--13--12------12---8--10--------|
G|--------------------12-------|---------------12--------------------|
D|-----------------------------|-------------------------------------|
A|-----------------------------|-------------------------------------|
E|-----------------------------|-------------------------------------|

e|-----------------7-7------7-----7---|---------------10-10-------10-----|
B|-----8--8/10-10--------------7------|------8/10-10---------------------|
G|--7-------------------7-------------|--7--------------------7----------|
D|------------------------------------|----------------------------------|
A|------------------------------------|----------------------------------|
E|------------------------------------|----------------------------------|

e|------10/12---12/14--14/15--15--------|--17--19--17--15--14--15--14-------|
B|--10----------------------------12----|--~--------~------------------12---|
G|--------------------------------------|-----------------------------------|
D|--------------------------------------|-----------------------------------|
A|--------------------------------------|-----------------------------------|
E|--------------------------------------|-----------------------------------|

e|--15--14------------------------------------|-------------------------------|
B|--12--12---15-15---15/17--17-----17----17---|---15--13-13--15--15------15---|
G|--------------12----------------------------|----------------------12-------|
D|--------------------------17--17----17------|-------------------------------|
A|--------------------------------------------|-------------------------------|
E|--------------------------------------------|-------------------------------|

e|------------------------------------------------------------|
B|--8--10--12--12/13---8--10--7--8-----8-----8----------------|
G|---------------------------------7-----7--------------------|
D|------------------------------------------------------------|
A|------------------------------------------------------------|
E|------------------------------------------------------------|

[Verse]
e|-----7--10--12-----12----12----|------7--12--10---10---10------------|
B|--8----------------------------|---8------------8----8---------------|
G|----------------12----12-------|-------------------------------------|
D|-------------------------------|-------------------------------------|
A|-------------------------------|-------------------------------------|
E|-------------------------------|-------------------------------------|

e|-----7--10--8---7---5---3--5--7---7---7---|
B|--8-----------8---8-------------8---8-----|
G|------------------------------------------|
D|------------------------------------------|
A|------------------------------------------|
E|------------------------------------------|

e|-----7--10--12-----12----12----|---15--14--12--10---10---10--------|
B|--8------------10-----10-------|------------------8----8-----------|
G|-------------------------------|-----------------------------------|
D|-------------------------------|-----------------------------------|
A|-------------------------------|-----------------------------------|
E|-------------------------------|-----------------------------------|

e|--7h8/9-----8--7--8----8/10---10/12--14-15--19--17--------|
B|----------8---------8-------8-----------------------------|
G|----------------------------------------------------------|
D|----------------------------------------------------------|
A|----------------------------------------------------------|
E|----------------------------------------------------------|

[Chorus 2]
e|-----------------7-7------7-----7---|---------------10-10-------10-----|
B|-----8--8/10-10--------------7------|------8/10-10---------------------|
G|--7-------------------7-------------|--7--------------------7----------|
D|------------------------------------|----------------------------------|
A|------------------------------------|----------------------------------|
E|------------------------------------|----------------------------------|

e|------10/12---12/14--14/15--15--------|--17--19--17--15--14--15--14-------|
B|--10----------------------------12----|--~--------~------------------12---|
G|--------------------------------------|-----------------------------------|
D|--------------------------------------|-----------------------------------|
A|--------------------------------------|-----------------------------------|
E|--------------------------------------|-----------------------------------|

e|--15--14------------------------------------|-------------------------------|
B|--12--12---15-15---15/17--17-----17----17---|---15--13-13--15--15------15---|
G|--------------12----------------------------|----------------------12-------|
D|--------------------------17--17----17------|-------------------------------|
A|--------------------------------------------|-------------------------------|
E|--------------------------------------------|-------------------------------|

e|------------------------------------------|
B|--8--10--12--12/13---8--10--7--8-----8----|
G|---------------------------------7-----7--|
D|------------------------------------------|
A|------------------------------------------|
E|------------------------------------------|

e|--------------------8-8------8-----8---|---------------11-11-------11-----|
B|--9---9--9/11-11----------------8------|------9/11-11---------------------|
G|----8--------------------8-------------|--8--------------------8----------|
D|---------------------------------------|----------------------------------|
A|---------------------------------------|----------------------------------|
E|---------------------------------------|----------------------------------|

e|------11/13---13/15--15/16--16--------|--18--20--18--16--15--16--15-------|
B|--11----------------------------13----|--~--------~------------------13---|
G|--------------------------------------|-----------------------------------|
D|--------------------------------------|-----------------------------------|
A|--------------------------------------|-----------------------------------|
E|--------------------------------------|-----------------------------------|

e|--16--15------------------------------------|-------------------------------|
B|--13--13---16-16---16/18--18-----18----18---|---16--14-14--16--16------16---|
G|--------------13----------------------------|----------------------13-------|
D|--------------------------18--18----18------|-------------------------------|
A|--------------------------------------------|-------------------------------|
E|--------------------------------------------|-------------------------------|

e|---------------------------------------------|
B|--9--11--13--13/14---9--11--8--9-----9---9---|
G|---------------------------------8-----8-----|
D|---------------------------------------------|
A|---------------------------------------------|
E|---------------------------------------------|

e|-------------------------------------------|
B|--9--11--13--13/14---9--11--8--9-----------|
G|-------------------------------------------|
D|-------------------------------------------|
A|-------------------------------------------|
E|-------------------------------------------|


************************************

| /  Slide up
| ~  Vibrato
| h  Hammer-on

************************************
Suggest correction
comments
print report bad tab
4 comments total. Showing first comments.
0 reply
unclerhea 10 Oct 05, 2008 11:49 PM

SALAMAT

+2 reply
evonexus 10 Nov 05, 2008 10:26 PM

hey, just to let you know youve tabbed the whole thing half-step down, so you should change it.

or i might as well just repost the tab my self, k?

0 reply
unclerhea 10 Feb 10, 2009 11:37 PM

thank you!

guest
You may want to rate the tab now too:
select rating
Wanna post a correction for this tab? Suggest correction