Oops, an error
Loading. Please wait.

Kiss The Rain tab

version 10
version 10

Whole song

by Yiruma
619 views 6 this week
no commentswrite comment
1 2 3 4 5
3 more votes to show rating
add to favorites
×
Save as Personal and add changes to this tab that will be seen only by you. Learn more ›
×
You can save this tab as Personal to edit and correct it or add notes. All changes will be seen only by you. Learn more »
launch autoscroll
font size
0
reset
how to read this tab
guitar tuner
edit
Autoscroll
slow
fast
+/-
esc
set tempo
stop
Author
Difficulty
About this tab version
All the other tabs are fingerstyle, this is a tab of the lead, or treble from the piano that I have transposed to the guitar if you want to play this song on electric rather than acoustic. Everyone can't finger pick, so it's also a nice slow novice. Taken from piano sheet music so it is 100% accurate. I also tabbed out a higher octave section for the climax of the song to spice it up if people don't want to play it note for note. I also give a few hints on the recurring motifs such as the note durations and when to roll back the volume knob for a more gentle sound to fit the song. Was this info helpful? Yes No
-------------------------------------------------------------------------------
                             Kiss The Rain - Yiruma
-------------------------------------------------------------------------------
Tabbed by: BrentGuitarx


Tuning: Standard. 

Key of C. Changes to Key of A at 3:24

Tab of the "lead" or "treble" of the melody

Based on the studio version. Tabbed the final chorus before the key change 
an octave higher for a climactic finish  https://www.youtube.com/watch?v=IvdxyGR2Cz4

70bpm

  
 (0:00-0:15)
 Section 1 3 16th notes + 3 8th notes. 123 1 2 3.
e|----------------------------------------------------------6-6h8-6----------|
B|---------------------------------------------6-8-8--9--9~----------9-8~----|
G|----------------------------------8--8~----8-------------------------------|
D|-----6-8-8--10--10~-----6-8-/10-8------------------------------------------|
A|---6-----------------------------------------------------------------------|
E|---------------------------------------------------------------------------|
 8th notes here     123    1 2    Ending 1
 (0:15-0:30)
e|------------------------------|-------------------------------|
B|-9-8-------6-6~---------------|-------------------------------|
G|------8-8---------8-6-6-8-8~--|------5-6-6~----/8-6-5~--------|
D|------------------------------|--6-8----------------------8---|
A|------------------------------|-------------------------------|
E|------------------------------|-------------------------------|
   8th notes this time to start
  (0:30-0:45)
  Section 2
e|----------------------------------------------------------6-6h8-6----------|
B|---------------------------------------------6-8-8--9--9~-----------9-8~---|
G|----------------------------------8--8~----8-------------------------------|
D|-----6-8-8--10--10~-----6-8-/10-8------------------------------------------|
A|---6-----------------------------------------------------------------------|
E|---------------------------------------------------------------------------|
                                  Ending 2
e|------------------------------|-------------------------------|
B|-9-8-------6-6~---------------|-----------6--9--8--9~---------|
G|------8-8---------8-6-6-8-8~--|------5-6----------------------|
D|------------------------------|--6-8--------------------------|
A|------------------------------|-------------------------------|
E|------------------------------|-------------------------------|

 (1:00-1:15)
 Section 3
e|-------------------------------------------------------------------------------|
B|-------------------------------------------------------------------------------|
G|-------------------------------------------------------------------------------|
D|-----10-13-15~-------------/15-13~---------13-13-11-11-10-10-8-8----8-10-10~---|
A|--10----------------10-11------------10-11-----------------------11------------|
E|-------------------------------------------------------------------------------|

 (1:15-1:30)                                                       
e|----------------------------------------------------------------------------|
B|------------------------------------------------------------------13~--11---|
G|-------------------------------------------------------10--12--13-----------|
D|-----10-13-15~--------/15-13~---10-11-13--11-10-11--13----------------------|
A|--11------------10-10-------------------------------------------------------|
E|----------------------------------------------------------------------------|

          
        |---------------REPEAT SECTIONS 1 and 2 (1:30-2:27)---------------|
                             
 (2:27-2:42)
 Section 4
e|-------------------------------------------------------------------------------|
B|-------------------------------------------------------------------------------|
G|-------------------------------------------------------------------------------|
D|-----10-13-15~-------------/15-13~---------13-13-11-11-10-10-8-8----8-10-10~---|
A|--10----------------10-11------------10-11-----------------------11------------|
E|-------------------------------------------------------------------------------|

 (2:42-2:56)                                                       
e|----------------------------------------------------------------------------|
B|----------------------------------------------------------------------------|
G|-------------------------------------------------------10--12--13--15b--15~-|
D|-----10-13-15~--------/15-13~---10-11-13--11-10-11--13----------------------|
A|--11------------10-10-------------------------------------------------------|
E|----------------------------------------------------------------------------|

 Section 5
 (2:56-3:11)
e|------------------------------------------------13-15-15-16-16~--18-18h20-18--------|
B|--------11-11-13-13~----------13----16-16~---16------------------------------21-20~-|
G|-----13----------------13-15----15--------------------------------------------------|
D|--13--------------------------------------------------------------------------------|
A|------------------------------------------------------------------------------------|
E|------------------------------------------------------------------------------------|
  (3:11-3:25)                                               Key change to A major(3:24)
e|----------------------------------------------8-9-------------|
B|--21-20--------18-18~-------------------9-11--------6-9-8-10--|
G|--------20-20----------20-18-18-20-20~------------------------|
D|--------------------------------------------------------------|
A|--------------------------------------------------------------|
E|--------------------------------------------------------------|

 (3:25-3:44)Roll back volume knob/pick gently
 Section 6                                                                Volume back up/pick hard
e|-------------------------------------------------------7-7h9-7-------------------------|
B|-----------------------------------------7-9-9-10-10~----------10-9~----10-9-----7-7~--|
G|------------------------------9--9~----9-------------------------------------9-9-------|
D|----7-9-9-11-11~---7-9-/11-9-----------------------------------------------------------|
A|--7------------------------------------------------------------------------------------|
E|---------------------------------------------------------------------------------------|

 (3:45-4:18)                            Volume down/pick gently to end the song
e|--------------------------------------5-7-9-10-----------------------------|
B|-----------------------------------------------7--10----9----10~-----------|
G|--9-7-7-9-9~---------------------------------------------------------------|
D|---------------7-9-11-12----7-6-7~-----------------------------------------|
A|--------------------------9------------------------------------------------|
E|---------------------------------------------------------------------------|


************************************

| /   slide up
| \   slide down
| h   hammer-on
| p   pull-off
| ~   vibrato
| +   harmonic
| x   Mute note
| b   Bend
| pb  Pre-bend
| br  Bend release
| pbr Pre-bend release
| brb Bend release bend

************************************
Suggest correction
Creating personal tab
Creating personal tab
You can edit any tab online and save it as your Personal.

You can edit, replace or remove any tab part or add personal notes – all changes will be seen only by you.

Personal tabs can be accessed anytime from any device, even offline.
Learn more »
Give kudos to tab author, rate the tab!
1 2 3 4 5
comments
print report bad tab
guest
You may want to rate the tab now too:
select rating
Wanna post a correction for this tab? Suggest correction