Oops, an error
Loading. Please wait.

Kiss The Rain Tab

version 3
version 3

Whole song

Interactive

678,068 views 2,127 this week
18 commentsread comments
1 2 3 4 5
x 148
add to favorites
launch autoscroll
font size
0
reset
how to read this tab
guitar tuner
Autoscroll
slow
fast
+/-
esc
set tempo
stop
Help us to improve Ultimate-Guitar.com Take our survey!
×
Author
Tuning
E A D G B E
Kiss the Rain - Yiruma
Tabbed by: ARHmaniac
Tuning: Standard

Here is a video of me playing the song:
http://www.youtube.com/watch?v=lwQUGTyPCcM


[MAIN VERSE]

e|---------|---------------------------|--------------------0-2-|
B|---------|----0--0-----------------0-|----3--3----------3-----|
G|----0--2-|-2-----------2-------0-2---|-2-----------2----------|
D|-0-------|----------0-----0----------|----------0-------------|
A|---------|---------------------------|-2----------------------|
E|---------|-3-----------------3-------|------------------------|

e|-2--3--3--------5--7-5-3--|-2-------------3--2----|----0--0-----------------|
B|----------0--3------------|----0--3--0----------3-|-3-----------3-------3-1-|
G|--------------------------|-----------------------|----------0-----0--------|
D|-2------------------------|-----------------------|-------------------------|
A|--------------------------|-2---------------------|-3-----------------------|
E|--------------------------|-----------------------|-------------------------|

e|----------------------|
B|-1--3--3--------------|
G|-0-----------0----0-2-|
D|----------0-----------|
A|----------------------|
E|-3--------------------|

[FIRST ENDING]

e|-------------------------|-------------------|
B|-0--1--1------------3--1-|-0--------0--------|
G|-0-----------0-----------|-0-----0-----2-----| 
D|----------2-----2--------|-0--0--------0-----|
A|-0-----------------------|-------------------|
E|-------------------------|-------------------|


[MAIN VERSE]

e|---------|---------------------------|--------------------0-2-|
B|---------|----0--0-----------------0-|----3--3----------3-----|
G|----0--2-|-2-----------2-------0-2---|-2-----------2----------|
D|-0-------|----------0-----0----------|----------0-------------|
A|---------|---------------------------|-2----------------------|
E|---------|-3-----------------3-------|------------------------|

e|-2--3--3--------5--7-5-3--|-2-------------3--2----|----0--0-----------------|
B|----------0--3------------|----0--3--0----------3-|-3-----------0-------3-1-|
G|--------------------------|-----------------------|----------2-----2--------|
D|-2------------------------|-----------------------|-------------------------|
A|--------------------------|-2---------------------|-3-----------------------|
E|--------------------------|-----------------------|-------------------------|

e|----------------------|
B|-1--3--3--------------|
G|-0-----------0----0-2-|
D|----------0-----------|
A|----------------------|
E|-3--------------------|


[SECOND ENDING]

e|-----------------------|-----------------|
B|-0--1------------------|-----------------|
G|-0-----0-----0---------|-0-----------0---| 
D|----------2-------2----|----0-----0------|
A|-0---------------------|-------2---------|
E|-----------------------|-3---------------|


[CHORUS]

e|---------|-0------------------0-|-----------------------|
B|----0--3-|-------3--------------|-3--------3----------3-|
G|-0-------|----0-----0---0--0----|-------0-----0--0------|
D|---------|----------------------|----0------------------|
A|---------|-3--------------------|-2---------------------|
E|---------|----------------------|-----------------------|

e|-----------------------------------|-0-------------2--2--0-|
B|-3--1-1-0-0----------0--0-----0--3-|-------3---------------|
G|-0----------2-2-0-2--------0-------|----0-----0------------|
D|-----------------------------------|-----------------------|
A|-3---------------------------------|-3---------------------|
E|------------------3----------------|-----------------------|

e|----------------------|-------0--2-3--7--------7--5---|
B|-3--------0-1-3---1-0-|-1--3----------------0---------|
G|-------0--------------|-0----------------0------------| 
D|----0-----------------|---------------0-----------0---|
A|-2------------0-------|-0-----------------------------|
E|----------------------|-------------------------------|


[MAIN VERSE]

e|---------|---------------------------|--------------------0-2-|
B|---------|----0--0-----------------0-|----3--3----------3-----|
G|----0--2-|-2-----------2-------0-2---|-2-----------2----------|
D|-0-------|----------0-----0----------|----------0-------------|
A|---------|---------------------------|-2----------------------|
E|---------|-3-----------------3-------|------------------------|

e|-2--3--3--------5--7-5-3--|-2-------------3--2----|----0--0-----------------|
B|----------0--3------------|----0--3--0----------3-|-3-----------3-------3-1-|
G|--------------------------|-----------------------|----------0-----0--------|
D|-2------------------------|-----------------------|-------------------------|
A|--------------------------|-2---------------------|-3-----------------------|
E|--------------------------|-----------------------|-------------------------|

e|----------------------|
B|-1--3--3--------------|
G|-0-----------0----0-2-|
D|----------0-----------|
A|----------------------|
E|-0--------------------|


***********************************
| /   Slide up
***********************************
Suggest correction
comments
print report bad tab
18 comments total. Showing first comments.
+1 reply
stygiant 10 Jul 22, 2011 08:10 AM

thanks a lot for this great tab :)

+10 reply
Jzst 10 Apr 13, 2012 07:17 AM

really nice tab, would like to ask how it ends though?

+2 reply
arhmaniac 122 Feb 15, 2013 04:30 AM

Thanks for the kind words and ratings guys :)

guest
You may want to rate the tab now too:
select rating
Wanna post a correction for this tab? Suggest correction