Oops, an error
Loading. Please wait.

Kiss The Rain Tab

version 4
version 4

Whole song

Interactive

82,339 views 90 this week
2 commentsread comments
1 2 3 4 5
x 6
add to favorites
launch autoscroll
font size
0
reset
how to read this tab
guitar tuner
Autoscroll
slow
fast
+/-
esc
set tempo
stop
Help us to improve Ultimate-Guitar.com Take our survey!
×
Author
Difficulty
intermediate
---------------------------------------------------------------------------
Kiss the Rain - Yiruma
---------------------------------------------------------------------------

Tuning: Standard
Tempo: Moderate

Video: http://www.youtube.com/watch?v=2OjqDMkNXCE 

e|----------------------------------------0--0----------0-2-4-4--5-5-------|
B|------0--0--2--2---------------0--2--0----------2-----------2---------2--|
G|----2-----------------2------2------------------------------2-------2----|
D|--2-----------------2----------------------2--2-------------2------------|
A|---------0---------------------------------------------------------------|
E|-------------------------------------4-----------------------------------|

e|-7-7h9-7-5-4-----------------5--4--0--0--2--2------------0-------0---0---|
B|------------------5---------------------------------3------3--3----------|
G|----------------6---6----------------------------2-----------------------|
D|--------------------------------------0----------------------------------|
A|-------------------------7-----------------------------------------------|
E|-----------0--------------------------------------------------5----------|

                   * <--just a repeat point for the ending
e|---------------2-*------------0-----x----------------------------------|
B|-----2------0--2-*3-3-----------3---2---------0----------Repeat--------|
G|---2------2----2-*--------2---------2----2----2----<<<--from-----------|
D|---------------4-*-----4------------0--2---2--2----the-Beginning 1 time|
A|---------------5-*-----------------------------------------------------|
E|---------------0-*-----------------------------------------------------|

then...

e|--------------------0--2-----0--------------2----------------------------|
B|-----0--3--2------2----3--------3--------------0-------------------------|
G|-----------2----2------2--2--------2--1--2-----2-----2--1--2-------------|
D|--2--------0-----------0-----------------------2--2----------------------|
A|-----------------------------------0-----------4-------------------------|
E|-------------------------------------------------------------------------|

e|---0------------------------------0--2------2-------4--4-----------------|
B|------5-3-3-2-2-0-0-----0-2-2---2----1----1-------4----4--7---5----------|
G|------2---2---2---2--2--------2------2--2---------5-----------4----6-----|
D|-------------------------------------1------------6-----------6--6-------|
A|------4---------------------0---------------------------------6----------|
E|------2-------------------------------------------------------4----------|

e|--------------0--2--4--5-----9----------------7--------------------------|
B|--2-3-2-3--------3-----------10-------10------8-------------3p2--0--0--2-|
G|-----------------------------11----11-----11--9--------2--4---------2----|
D|-----------4-----0-----------9----------------7--2--4---------------2--0-|
A|--------2-----2----------------------------------------------------------|
E|-------------------------------------------------------------------------|

e|-------------------------0--0------------0--2--4--4-5-5--7-7h9-7-5-------|
B|-2-----------------2--0-----------2---------------2----------------------|
G|----2--------2--4-----2---------------------------2----------------------|
D|-2----2---2-----------0-----0--2----2-------------2----------------------|
A|--------0-------------4---------------0----------------------------------|
E|-------------------------------------------------------------------------|

e|-4-----------5-4-0-0--2--2-----0--------0--0-----------------------------|
B|-----5-----------------------3----3--3----------2-------------2---3-3----|
G|---6---6-------------------2------------------2---2-----2--4--4----------|
D|-------------------0-----0---------------------------0-------------------|
A|----------7--------------------------0------------------------5----------|
E|-0------------------------------------------------------------2----------|

e|---------0--------------------------Repeat from the beginning------------|
B|------------3--2---------0-----------------------------------------------|
G|----2----------2----2----2------------until the * <--- point-------------|
D|--4---4-----------4---4--2-----------------------------------------------|
A|---------------0---------------------------------------------------------|
E|-------------------------------------------------------------------------|

then...

e|---------------------------------7--9--9--10--10----5----4---------------|
B|-3-------------------------------------7---------7--5--------------------|
G|---2-----2----1----2----2--------------7------------6--6---4-------------|
D|-----4---2--2---2--2--2---2------------8------------8---------7----------|
A|---------0---------0--------2----------7------------7---------7----------|
E|---------------------------------------7------------5---------5----------|

The End

..and an unnecessary guitar legend but it looks cool so 'yay'

************************************

| x  Dead note
| h  Hammer-on
| p  Pull-off

************************************

There you go ;] enjoy !  [or die!!! lol justkidding ;] ]
-SKY
Suggest correction
comments
print report bad tab
2 comments total.
0 reply
simonhega 10 Sep 09, 2016 08:18 AM

Tab not so interesting.

0 reply
ztxgaming101 10 Nov 14, 2016 04:34 AM

video is private

guest
You may want to rate the tab now too:
select rating
Wanna post a correction for this tab? Suggest correction