Oops, an error
Loading. Please wait.

Kiss The Rain tab

version 6
version 6

Whole song

by Yiruma
31,133 views 129 this week
3 commentsread comments
1 2 3 4 5
x 6
add to favorites
×
Save as Personal and add changes to this tab that will be seen only by you. Learn more ›
×
You can save this tab as Personal to edit and correct it or add notes. All changes will be seen only by you. Learn more »
launch autoscroll
font size
0
reset
how to read this tab
guitar tuner
edit
Autoscroll
slow
fast
+/-
esc
set tempo
stop
Author
Difficulty
Kiss The Rain by Yiruma. First tab, apologies for mistakes. Standard tuning. Enjoy :)

PART 1
e|-------------0-0-------------------0------3-3-----------3-5-7-7-8-8--------|
B|------1-3-3------------1-----1-3------3------------0-----------------------|
G|--0-----------------0---------------------------0--------------------0-----|
D|------------------------------------------------------------------------8--|
A|---------------------------------------------------------------------------|
E|---------------------------------------------------------------------------|

e|--10-12-10-8-7---------8-7--3-3-5-5---------3-1-1-3-3------3---------0-0---|
B|-------------------0--------------------------------------------1-3--------|
G|----------------0---------------------0-2---------------0------------------|
D|---------------------------------------------------------------------------|
A|---------------------------------------------------------------------------|
E|---------------------------------------------------------------------------|

e|-1-1--3-1-0(hold)----------------------------------------------------------|
B|------------------3(hold)--------------------------------------------------|
G|---------------------------------------------------------------------------|
D|---------------------------------------------------------------------------|
A|---------------------------------------------------------------------------|
E|---------------------------------------------------------------------------|

PART 2
e|-------------0-0-------------------0------3-3-----------3-5-7-7-8-8--------|
B|------1-3-3------------1-----1-3------3------------0-----------------------|
G|--0-----------------0---------------------------0--------------------0-----|
D|------------------------------------------------------------------------8--|
A|---------------------------------------------------------------------------|
E|---------------------------------------------------------------------------|

e|--10-12-10-8-7---------8-7--3-3-5-5---------3-1-1-3-3------3---------0-0---|
B|-------------------0--------------------------------------------1-3--------|
G|----------------0---------------------0-2---------------0------------------|
D|---------------------------------------------------------------------------|
A|---------------------------------------------------------------------------|
E|---------------------------------------------------------------------------|

e|-1-1-------------------------------------------------------------------------|
B|------------1-0-1(hold)------------------------------------------------------|
G|---------0-------------------------------------------------------------------|
D|-----------------------------------------------------------------------------|
A|-----------------------------------------------------------------------------|
E|-----------------------------------------------------------------------------|

PART 3
e|----0-3-5-----------5-3----------3-3-1-1-0-0-------------0---------0-3-5---|
B|-1----------1-0-1---------1-0-1---------------3-3---1-3---------1----------|
G|---------------------------------------------------------------------------|
D|---------------------------------------------------------------------------|
A|---------------------------------------------------------------------------|
E|---------------------------------------------------------------------------|

              (fast)
e|-8-7-5-3----0-1-3----1-0-1--3-5-7-8-12(hold)--10(hold)---------------------|
B|---------------------------------------------------------------------------|
G|---------------------------------------------------------------------------|
D|---------------------------------------------------------------------------|
A|---------------------------------------------------------------------------|
E|---------------------------------------------------------------------------|

PART 1 REPEAT
e|-------------0-0-------------------0------3-3-----------3-5-7-7-8-8--------|
B|------1-3-3------------1-----1-3------3------------0-----------------------|
G|--0-----------------0---------------------------0--------------------0-----|
D|------------------------------------------------------------------------8--|
A|---------------------------------------------------------------------------|
E|---------------------------------------------------------------------------|

e|--10-12-10-8-7---------8-7--3-3-5-5---------3-1-1-3-3------3---------0-0---|
B|-------------------0--------------------------------------------1-3--------|
G|----------------0---------------------0-2---------------0------------------|
D|---------------------------------------------------------------------------|
A|---------------------------------------------------------------------------|
E|---------------------------------------------------------------------------|

e|-1-1--3-1-0(hold)----------------------------------------------------------|
B|------------------3(hold)--------------------------------------------------|
G|---------------------------------------------------------------------------|
D|---------------------------------------------------------------------------|
A|---------------------------------------------------------------------------|

PART 2 REPEAT
e|-------------0-0-------------------0------3-3-----------3-5-7-7-8-8--------|
B|------1-3-3------------1-----1-3------3------------0-----------------------|
G|--0-----------------0---------------------------0--------------------0-----|
D|------------------------------------------------------------------------8--|
A|---------------------------------------------------------------------------|
E|---------------------------------------------------------------------------|

e|--10-12-10-8-7---------8-7--3-3-5-5---------3-1-1-3-3------3---------0-0---|
B|-------------------0--------------------------------------------1-3--------|
G|----------------0---------------------0-2---------------0------------------|
D|---------------------------------------------------------------------------|
A|---------------------------------------------------------------------------|
E|---------------------------------------------------------------------------|

e|-1-1-------------------------------------------------------------------------|
B|------------1-0-1(hold)------------------------------------------------------|
G|---------0-------------------------------------------------------------------|
D|-----------------------------------------------------------------------------|
A|-----------------------------------------------------------------------------|
E|-----------------------------------------------------------------------------|
Suggest correction
Creating personal tab
Creating personal tab
You can edit any tab online and save it as your Personal.

You can edit, replace or remove any tab part or add personal notes – all changes will be seen only by you.

Personal tabs can be accessed anytime from any device, even offline.
Learn more »
comments
print report bad tab
3 comments total.
0 reply
josh.m.deleon 10 Dec 23, 2013 09:28 PM

Nice tabs :D thanks a lot

0 reply
siavash.jm 10 May 27, 2014 04:52 AM

nice...

you've written
(fast)
e|-8-7-5-3----0-1-3----1-0-1--3-5-7-8-12(hold)--10(hold)----------|

but i think
this one is correct

e|-8-8-5-3----0-1-3----1-0-1--3-5-7-8-12(hold)--10(hold)----------|

part 3
8-8 instead of 8-7

I'm looking forward to hearing from you.

0 reply
markjustin.cris 43 Jul 19, 2016 06:53 AM

lack of bass

guest
You may want to rate the tab now too:
select rating
Wanna post a correction for this tab? Suggest correction