Oops, an error
Loading. Please wait.

River Flows In You Tab

version 1
version 1

Whole song

by Yiruma
1,201,612 views 1,614 this week
8 commentsread comments
1 2 3 4 5
x 93
add to favorites
launch autoscroll
font size
0
reset
how to read this tab
guitar tuner
Autoscroll
slow
fast
+/-
esc
set tempo
stop
Author
Difficulty
intermediate
E||---5--4--5--4--5-----5-----|------------|---5--4--5--4--5-----5----|
B||------------------5-----3--|------------|------------------5-----3-|
G||---------------------------|--2---4-----|--------------------------|
D||---------------------------|------------|--------------------------|
A||---------------------------|------------|--------------------------|
e||---------------------------|------------|--------------------------|

E||-------------|--5--4--5--4--5-----5--------------------------------|
B||-------------|-----------------5------3----2--3--5-----2-----------|
G||--2---4------|--------------------------------------------4--------|
D||-------------|-----------------------------------------------------|
A||-------------|-----------------------------------------------------|
e||-------------|-----------------------------------------------------|

E||------------------------|------------------------------------------|
B||------------------------|--------5--------3---2---0----------------|
G||--2--1--2-----2--4--6---|-6--7-------------------------------------|
D||-----------2------------|------------------------------------------|
A||------------------------|------------------------------------------|
e||------------------------|------------------------------------------|

    (optional)
E||-------------|--5--4--5--4--5-----5--------------------9---7-------|
B||-------------|-----------------5-----3----2---3--5------------------|
G||--2---4------|-----------------------------------------------------|
D||-------------|-----------------------------------------------------|
A||-------------|-----------------------------------------------------|
e||-------------|-----------------------------------------------------|

E||---9--7--5--4—-5--|------------------------------------|
B||------------------|--------------------5---------------|
G||------------------|--2--4--6----6--7--------7--6--4----|
D||------------------|------------------------------------|
A||------------------|------------------------------------|
e||------------------|------------------------------------|

E||--5--7--5--4—-5-----|--5--7--5--4--5------5--7--9--10--12--9--7--5—-4---|
B||-----------------5--|-----------------5---------------------------------|
G||--------------------|---------------------------------------------------|
D||--------------------|---------------------------------------------------|
A||--------------------|---------------------------------------------------|
e||--------------------|---------------------------------------------------|

E||--5--7--5--4—-5-----|--5--7--5--4--5------5--7--9--10--12--9--7--5—-4---|
B||-----------------5--|-----------------5--------------------------------|
G||--------------------|--------------------------------------------------|
D||--------------------|--------------------------------------------------|
A||--------------------|--------------------------------------------------|
e||--------------------|--------------------------------------------------|

E||--5—5--7--5--4—-5-----|-5--5--7--5--4--5------5--5--7--9--10--12--9--7—-5-—4--|
B||-------------------5--|-------------------5-----------------------------------|
G||----------------------|-------------------------------------------------------|
D||----------------------|-------------------------------------------------------|
A||----------------------|-------------------------------------------------------|
e||----------------------|-------------------------------------------------------|
E||--5—5--7--5--4—-5-----|-5--5--7--5--4--5------5--5--7--9--10--12--9--7--5—-4--|
B||-------------------5--|-------------------5-----------------------------------|
G||----------------------|-------------------------------------------------------|
D||----------------------|-------------------------------------------------------|
A||----------------------|-------------------------------------------------------|
e||----------------------|-------------------------------------------------------|

    (optional)
E||-------------|--5--4--5--4--5-----5--------------------------------|
B||-------------|-----------------5------3----2--3--5-----2-----------|
G||--2---4------|--------------------------------------------4--------|
D||-------------|-----------------------------------------------------|
A||-------------|-----------------------------------------------------|
e||-------------|-----------------------------------------------------|

E||------------------------|------------------------------------------|
B||------------------------|--------5--------3---2---0----------------|
G||--2--1--2-----2--4--6---|-6--7-------------------------------------|
D||-----------2------------|------------------------------------------|
A||------------------------|------------------------------------------|
e||------------------------|------------------------------------------|

E||-------------|--5--4--5--4--5-----5--------------------9---7-------|
B||-------------|-----------------5------3----2--3--5-----------------|
G||--2---4------|-----------------------------------------------------|
D||-------------|-----------------------------------------------------|
A||-------------|-----------------------------------------------------|
e||-------------|-----------------------------------------------------|

E||---9--7--5--4—-5--|------------------------------------|
B||------------------|--------------------5---------------|
G||------------------|--2--4--6----6--7--------7--6--4----|
D||------------------|------------------------------------|
A||------------------|------------------------------------|
e||------------------|------------------------------------|


E||--5—5--7--5--4—-5-----|-5--5--7--5--4--5------5--5--7--9--10--12--9--7--5—-4--|
B||-------------------5--|-------------------5-----------------------------------|
G||----------------------|-------------------------------------------------------|
D||----------------------|-------------------------------------------------------|
A||----------------------|-------------------------------------------------------|
e||----------------------|-------------------------------------------------------|

E||--5—5--7--5--4—-5-----|-5--5--7--5--4--5------5--5--7--9--10--12--9--7--5—-4--|
B||-------------------5--|-------------------5-----------------------------------|
G||----------------------|-------------------------------------------------------|
D||----------------------|-------------------------------------------------------|
A||----------------------|-------------------------------------------------------|
e||----------------------|-------------------------------------------------------|

E||--5—5--7--5--4—-5-----|-5--5--7--5--4--5------5--5--7--9--10--12--9--7--5—-4--|
B||-------------------5--|-------------------5-----------------------------------|
G||----------------------|-------------------------------------------------------|
D||----------------------|-------------------------------------------------------|
A||----------------------|-------------------------------------------------------|
e||----------------------|-------------------------------------------------------|
Suggest correction
comments
print report bad tab
8 comments total. Showing first comments.
0 reply
yahiko09 72 Apr 03, 2008 09:27 AM

3

+12 reply
finalheaven 31 Sep 21, 2008 12:07 AM

incomplete and A LOT of mistakes.
try to keep most of it on one section of the freboard, instead of all on one string.

my suggestion for the "optional" part:

e|-------------------|
B|--10-12-10-9-10----| x2
G|----------------9--|


then:
e|-------------------9-10-12~-10-9-----|
B|--10-12-10-9-10-12---------------12~-|
G|-------------------------------------|

0 reply
cindychiem98 15 Mar 18, 2011 11:00 AM

This si great

guest
You may want to rate the tab now too:
select rating
Wanna post a correction for this tab? Suggest correction