Oops, an error
Loading. Please wait.

River Flows In You Tab

version 2
version 2

Whole song

123,965 views 54 this week
5 commentsread comments
1 2 3 4 5
excellent!
x 19
add to favorites
launch autoscroll
font size
0
reset
how to read this tab
guitar tuner
Autoscroll
slow
fast
+/-
esc
set tempo
stop
Help us to improve Ultimate-Guitar.com Take our survey!
×
Author
I love this song so i thought i could learn how to play it on the guitar. I found some 
good ones but there were some pieces i didnt like XD XD XD... i made this one and i think 
quite good XD...

Its not that difficult to play...so try it :)

e||---5--4--5--4--5-----5-----|--------------|---5--4--5--4--5-----5----|
B||------------------5-----3--|--0---3-------|------------------5-----3-|
G||---------------------------|--------------|--------------------------|
D||---------------------------|--------------|--------------------------|
A||---------------------------|--------------|--------------------------|
E||---------------------------|--------------|--------------------------|

e||---------------|--5--45--45----5--------------------------------------|
B||--0---3--------|--------------5------3----2--3--5-----2--0------------|
G||---------------|------------------------------------------------------|
D||---------------|------------------------------------------------------|
A||---------------|------------------------------------------------------|
E||---------------|------------------------------------------------------|

e||------------------------|------------------------------------------|
B||------------------------|--------5--------3---2---0----------------|
G||--2--1--2-----2--4--6---|-6--7-------------------------------------|
D||-----------2------------|------------------------------------------|
A||------------------------|------------------------------------------|
E||------------------------|------------------------------------------|

e||-------------|--5--45--45------5--------------------9---7-----------|
B||--0---3------|----------------5-----3----2---3--5-------------------|
G||-------------|------------------------------------------------------|
D||-------------|------------------------------------------------------|
A||-------------|------------------------------------------------------|
E||-------------|------------------------------------------------------|

e||---9--7--5--4—-5--|------------------------------------|
B||------------------|--------------------5---------------|
G||------------------|--2--4--6----6--7--------7--6--4----|
D||------------------|------------------------------------|
A||------------------|------------------------------------|
E||------------------|------------------------------------|

e||--5--7--5--4—-5-----|--5--7--5--4--5------5--7--5--4--5--7--9--10--12--10--9--7--5--|
B||-----------------5--|-----------------5---------------------------------------------|
G||--------------------|---------------------------------------------------------------|
D||--------------------|---------------------------------------------------------------|
A||--------------------|---------------------------------------------------------------|
E||--------------------|---------------------------------------------------------------|

e||--5--7--5--4—-5-----|--5--7--5--4--5------5--7--5--4--5--7--9--10--12--10--9--7--5—--|
B||-----------------5--|-----------------5----------------------------------------------|
G||--------------------|----------------------------------------------------------------|
D||--------------------|----------------------------------------------------------------|
A||--------------------|----------------------------------------------------------------|
E||--------------------|----------------------------------------------------------------|

e||--5—-5-7--5--4—-5-----|-5--5-7--5--4--5------5--5-7--5--4--5--7--9--10--12--10--9--7—-5-—--|
B||-------------------5--|-------------------5------------------------------------------------|
G||----------------------|--------------------------------------------------------------------|
D||----------------------|--------------------------------------------------------------------|
A||----------------------|--------------------------------------------------------------------|
E||----------------------|--------------------------------------------------------------------|


e||--5—-5-7--5--4—-5-----|-5--5-7--5--4--5------5--7--5--4--5--7--9--10--12--10--9--7--5—----|
B||-------------------5--|-------------------5-----------------------------------------------|
G||----------------------|-------------------------------------------------------------------|
D||----------------------|-------------------------------------------------------------------|
A||----------------------|-------------------------------------------------------------------|
E||----------------------|-------------------------------------------------------------------|

(You dont have to play the repetition in the brackets, if you dont want it XD)

e||---------------|--5--45--45------5------------------------------------|
B||--0---3--------|----------------5------3----2--3--5-----2--0----------|
G||---------------|------------------------------------------------------|
D||---------------|------------------------------------------------------|
A||---------------|------------------------------------------------------|
E||---------------|------------------------------------------------------|

e||---------------------------------|-----------------------------------------|
B||---------------------------------|--------5--------5)-3---2---0-(3--2--0)--|
G||--2--1--2-----2--4--6-(2--4--6)--|-6--7-----(6--7--------------------------|
D||-----------2---------------------|-----------------------------------------|
A||---------------------------------|-----------------------------------------|
E||---------------------------------|-----------------------------------------|

e||-------------|--5--45--45-------5--------------------9---7---------|
B||--0---3------|-----------------5------3----2--3--5-----------------|
G||-------------|-----------------------------------------------------|
D||-------------|-----------------------------------------------------|
A||-------------|-----------------------------------------------------|
E||-------------|-----------------------------------------------------|

e||---9--7--5--4—-5--|-----------------------------------------------------|---------|
B||------------------|-----------------------------5-------5)--------------|---0--3--|
G||------------------|--2--4--6-(2--4--6)----6--7----(6--7------7--6--4----|---------|
D||------------------|-----------------------------------------------------|---------|
A||------------------|-----------------------------------------------------|---------|
E||------------------|-----------------------------------------------------|---------|

e||--—5--7--5--4—-5------|-5--5-7--5-4--5-----5--5-7--5--4--5--7--9--10--12--9--7--5—----|
B||-------------------5--|-----------------5---------------------------------------------|
G||----------------------|---------------------------------------------------------------|
D||----------------------|---------------------------------------------------------------|
A||----------------------|---------------------------------------------------------------|
E||----------------------|---------------------------------------------------------------|

e||--5—5-7--5--4—-5------|-5--5-7--5--4--5-------5--5-7--5--4--5--7--9--10--12--9--7--5—-----|
B||-------------------5--|-------------------5-----------------------------------------------|
G||----------------------|-------------------------------------------------------------------|
D||----------------------|-------------------------------------------------------------------|
A||----------------------|-------------------------------------------------------------------|
E||----------------------|-------------------------------------------------------------------|

e||--5—5-7--5--4—-5------|-5--7--5--4--5------5--5-7--5--4--5--7--9--10--12--9--7--5—----|
B||-------------------5--|-------------------5-------------------------------------------|
G||----------------------|---------------------------------------------------------------|
D||----------------------|---------------------------------------------------------------|
A||----------------------|---------------------------------------------------------------|
E||----------------------|---------------------------------------------------------------|

e||--—5-5-7--5--4—-5-----|-5--5-7--5-4--5-----5--5-7--5--4--5--7--9--10--12--9--7--5—-------|
B||-------------------5--|-----------------5------------------------------------------------|
G||----------------------|------------------------------------------------------------------|
D||----------------------|------------------------------------------------------------------|
A||----------------------|------------------------------------------------------------------|
E||----------------------|------------------------------------------------------------------|

e||-5--4--5--4--5----5----------------------------------------|
B||---------------5------3----2--3--5-----2--0----------------|
G||-----------------------------------------------------------|
D||-----------------------------------------------------------|
A||-----------------------------------------------------------|
E||-----------------------------------------------------------|

e||------------------------|------------------------------------------|
B||------------------------|--------5--------3---2---0----------------|
G||--2--1--2-----2--4--6---|-6--7-------------------------------------|
D||-----------2------------|------------------------------------------|
A||------------------------|------------------------------------------|
E||------------------------|------------------------------------------|


e||-----------|---5--4--5--4--5------5--------------------9---7------------|
B||--0---3----|------------------5-----3----2---3--5-----------------------|
G||-----------|------------------------------------------------------------|
D||-----------|------------------------------------------------------------|
A||-----------|------------------------------------------------------------|
E||-----------|------------------------------------------------------------|

e||------------------|------------------------------------|
B||------------------|--------------------5---------------|
G||--2--1--2---------|--2--4--6----6--7--------7--6--4----|
D||-----------2------|------------------------------------|
A||------------------|------------------------------------|
E||------------------|------------------------------------|
Suggest correction
comments
print report bad tab
5 comments total. Showing first comments.
0 reply
VöööV 50 wrote on September 30 2008, 08:03 am

e||--5--7--5--4—-5-----|--5--7--5--4--5------5--7--5--4--5--7--9--10--12--10--9--7--5--|
B||-----------------5--|-----------------5---------------------------------------------|
G||--------------------|---------------------------------------------------------------|
D||--------------------|---------------------------------------------------------------|
A||--------------------|---------------------------------------------------------------|
E||--------------------|---------------------------------------------------------------|

sorry i made a mistake!!! it has to go like this... only at the e string:
e||--5--7--5--4—-5-----|--5--7--5--4--5------5--7--5--4--5--7--9--10--12--9--10--9--7--5--|

0 reply
ECullen 122 wrote on May 3 2009, 11:53 am

great job but take off the extra 5s nd the repretition

0 reply
ECullen 122 wrote on May 4 2009, 03:36 pm

e||--5--7--5--4—-5-----|--5--7--5--4--5------5--7--5--4--5--7--9--10--12--10--9--7--5--|
B||-----------------5--|-----------------5---------------------------------------------|
G||--------------------|---------------------------------------------------------------|
D||--------------------|---------------------------------------------------------------|
A||--------------------|---------------------------------------------------------------|
E||--------------------|---------------------------------------------------------------|

after u go 12, 10, 9, 7, 5 u sud do

B||----3----2--3--5-----2--0------------|

guest
You may want to rate the tab now too:
select rating
Please do not post tabs as comments. Select "correction" instead!