Oops, an error
Loading. Please wait.
We have an official River Flows In You tab made by UG professional guitarists. Check out the tab »
×
by Yiruma
240,583 views 480 this week
7 commentsread comments
1 2 3 4 5
x 80
add to favorites
×
Save as Personal and add changes to this tab that will be seen only by you. Learn more ›
×
You can save this tab as Personal to edit and correct it or add notes. All changes will be seen only by you. Learn more »
launch autoscroll
font size
0
reset
how to read this tab
guitar tuner
edit
Autoscroll
slow
fast
+/-
esc
set tempo
stop
*PART1:
e|---------5-4-5-4-5--0--5-------------------|
b|------2-------------------3----------------|
g|---2---------------------------------------| 2x tong part na to...
d|-----------------0-------------------------|
a|-------------------------------------------|
e|---------2---------------------------------|

*PART2:
e|-------5-4-5-4-5--0--5---------------------|
b|----2------------------3-2-3-3/5--2-0------|
g|--2----------------------------------------|
d|---------------0---------------------------|
a|-------------------------0-----------------|
e|-------2----------------------------0------|

e|-------------------------------------------|
b|--------------2/3-5--3-2-0-----------------|
g|-2-1-2--2/4--------------------------------|
d|--------------0----------------------------|
a|------------------0------------------------|
e|-----2-------------------0-----------------|

*PART3:
e|-------5-4-5-4-5--0--5-----------7/9--7----|
b|----2------------------3-2-3-3/5-----------|
g|--2----------------------------------------|
d|---------------0---------------------------|
a|-------------------------0-----------------|
e|-------2------------------------------0----|

e|--7/9/7--5-4-5-----------------------------|
b|----------------------2-2/3-5--3-2-0-------|
g|-----------------2/4-----------------------|
d|----------------------0--------------------|
a|----------------------------0--------------|
e|-------------2---------------------0-------|

*PART4:
e|-------------------------------------------|
b|-10-12-10-9--10---10--12-10-9--10----------|
g|----------------9-------------------9------|
d|--------------------------------0----------|
a|--------------9----------------------------|
e|-------------------------------------------|

e|--------------------9-10-12-10-9-----------|
b|-10-12-10-9--10--12--------------10-9------|
g|-------------------------------------------|
d|-------------------------------------------| 4x repeat this part 4..
a|--------------0----------------------------| 
e|------------------------------------0------| 

*PART 5:
e|-------5-4-5-4-5--0--5-----------7/9--7----|
b|----2------------------3-2-3-3/5-----------|
g|--2----------------------------------------|
d|---------------0---------------------------|
a|-------------------------0-----------------|
e|-------2------------------------------0----|

e|--7/9/7--5-4-5-----------------------------|
b|----------------------2-2/3-5--3-2-0-------|
g|-----------------2/4-----------------------|
d|----------------------0--------------------|
a|----------------------------0--------------|
e|-------------2---------------------0-------| 

E||------------------2--------|
B||----------------2----------|
G||-2-1----------2------------|
D||-----------4---------------|
A||--------4------------------|
e||-----2---------------------|

E2 UNG PATTERN:  [ d ako sure kung tama tong pattern pero ayusin nio nlng^^ ]

PART 1 - REPEAT 2X
PART 2
PART 3 
PART 4- REPEAT 4X 
PART 2
PART 3
PART 4- REPEAT 4X
PART 5


~meron pong kulang yan d ko po maxadong alam kaya d ko nilagay... pero kahit yan lang ok na :D
~add nio ko megalive21@yahoo.com



************************************

| /  Slide up

************************************

            
            
Suggest correction
Creating personal tab
Creating personal tab
You can edit any tab online and save it as your Personal.

You can edit, replace or remove any tab part or add personal notes – all changes will be seen only by you.

Personal tabs can be accessed anytime from any device, even offline.
Learn more »
comments
print report bad tab
7 comments total. Showing first comments.
0 reply
elornus 10 Feb 19, 2011 01:55 PM

Sounds awesomee :D

0 reply
evalithium 10 May 06, 2011 07:18 AM

Good tab =)

+1 reply
imbazzz 10 May 21, 2014 07:31 PM

nice... but could you complete it? tnx :)

guest
You may want to rate the tab now too:
select rating
Wanna post a correction for this tab? Suggest correction