Oops, an error
Loading. Please wait.

Rivers Flow In You Tab

11,557 views 15 this week
no commentswrite comment
1 2 3 4 5
x 3
add to favorites
launch autoscroll
font size
0
reset
how to read this tab
guitar tuner
Autoscroll
slow
fast
+/-
esc
set tempo
stop
Help us to improve Ultimate-Guitar.com Take our survey!
×
Author
Difficulty
advanced
Yiruma - Rivers flow in you
(In electric-guitar)

Pre-Intro:

|----------------------------|--------------------------------|
|---10-9-10-9-10---10--3---2-|--10-9-10-9-10---10--3---2-3/9--|
|----------------9-----------|---------------9----------------|
|----------------------------|--------------------------------|
|----------------------------|--------------------------------|
|----------------------------|--------------------------------|

Song:

|------------------------------------|--------------------------------------|
|-10-9-10-9-10---10--3-2-3-3/5-2-0---|--------------2----2-3-5--3-2------(2)|
|--------------9---------------------|-2-1-2--1-2-4----4------------4-(1-2)-|
|------------------------------------|--------------------------------------|
|------------------------------------|--------------------------------------|
|------------------------------------|--------------------------------------|

|------------------------------------------------------------|
|-10-9-10-9-10---10--3-2-3-3/5-5/14-12--14-12----------------|
|--------------9-------------------------------14-13-14------|
|-------------------------------------------------------(14)-|
|------------------------------------------------------------|
|------------------------------------------------------------|

|-------------------------------|
|-------2----2-3-5--3-2------(2)|
|-1-2-4----4------------4-(1-2)-|
|-------------------------------|
|-------------------------------|
|-------------------------------|

Play two times this ~~~~~~~~~~~~~~~~~~~~ and after play this  
           ||                                 ||
           ||                                 ||  
          \../                               \../       
           \/                                 \/ 
|-----------------|      |------------------9-10-12-10-9---------------| 
|-10-12-10-9-10---|      |-10-12-10-9-10-12--------------10-9----------|
|---------------9-|      |-----------------------------------(9)-------|
|-----------------|      |---------------------------------------------|  
|-----------------|      |---------------------------------------------|
|-----------------|      |---------------------------------------------|
(Play all 3 times)

After:

( x 2 ) 
  ||
  ||
 \../
  \/
|--------------------| |---------------------9-10-10h12-10-9--------------|
|-10-10h12-10-9-10---| |-10-10h12-10-9-10-12-----------------10-9---------|
|------------------9-| |-----------------------------------------(9)------|
|--------------------| |-------------------------------------------(9)-(2)|
|--------------------| |--------------------------------------------------|
|--------------------| |--------------------------------------------------|

|----------------------------------------|
|-2/9-10-9-10-9-10---10--3-2-3-3/5-2-0---|
|------------------9---------------------|
|----------------------------------------|
|----------------------------------------|
|----------------------------------------|

|--------------------------------------|
|--------------2----2-3-5--3-2------(2)|
|-2-1-2--1-2-4----4------------4-(1-2)-|
|--------------------------------------|
|--------------------------------------|
|--------------------------------------|

|------------------------------------------------------------|
|-10-9-10-9-10---10--3-2-3-3/5-5/14-12--14-12----------------|
|--------------9-------------------------------14-13-14------|
|-------------------------------------------------------(14)-|
|------------------------------------------------------------|
|------------------------------------------------------------|

|-------------------------------|
|-------2----2-3-5--3-2------(2)|
|-1-2-4----4------------4-(1-2)-|
|-------------------------------|
|-------------------------------|
|-------------------------------|


( x 2 ) 
  ||
  ||
 \../
  \/
|--------------------| |---------------------9-10-10h12-10-9--------------|
|-10-10h12-10-9-10---| |-10-10h12-10-9-10-12-----------------10-9---------|
|------------------9-| |-----------------------------------------(9)------|
|--------------------| |--------------------------------------------------|
|--------------------| |--------------------------------------------------|
|--------------------| |--------------------------------------------------|
(Play all 3 times)

( x 2 )  
  ||
  ||
 \../
  \/
|--------------------| |---------------------9-10-10h12-10-9--------------|
|-10-10h12-10-9-10---| |-10-10h12-10-9-10-12-----------------10-9---------|
|------------------9-| |-----------------------------------------(9)------|
|--------------------| |-------------------------------------------(9)-(2)|
|--------------------| |--------------------------------------------------|
|--------------------| |--------------------------------------------------|

Mini-solo:

|---------------------------------------------------------------|
|-----10-9-9---------7-5-5/7-7-3-----5-7-3-----3-2-2-2----------|
|--2---------9---2-----------------2----------2----------4-4-2--|
|-4-------------4----------------4----------4-------------------|
|---------------------------------------------------------------|
|---------------------------------------------------------------|

|------------5-4-4---------------------------------------------|
|-------2-2-------(5)-----7-5-5/7-7--------3-2-2-3-------------|
|-2-1-2-----------------2----------------2---------------------|
|---------------------4----------------4-----------------7-6---|
|----------------------------------------------------5-7-------|
|--------------------------------------------------------------|

( x 2 ) 
  ||
  ||
 \../
  \/
|--------------------| |---------------------9-10-10h12-10-9--------------|
|-10-10h12-10-9-10---| |-10-10h12-10-9-10-12-----------------10-9---------|
|------------------9-| |-----------------------------------------(9)------|
|--------------------| |--------------------------------------------------|
|--------------------| |--------------------------------------------------|
|--------------------| |--------------------------------------------------|
(Play 4 times)

( x 2 )  
  ||
  ||
 \../
  \/
|--------------------| |---------------------9-10-10h12-10-9--------------|
|-10-10h12-10-9-10---| |-10-10h12-10-9-10-12-----------------10-9---------|
|------------------9-| |-----------------------------------------(9)------|
|--------------------| |-------------------------------------------(9)-(2)|
|--------------------| |--------------------------------------------------|
|--------------------| |--------------------------------------------------|

|--------------5--|
|-----------------|
|-----------------|
|---5-7-5-3-------|
|-3---3-3-3-------|
|-----------------|  End~

Enjoy it ^^
Suggest correction
Give kudos to tab author, rate the tab!
1 2 3 4 5
comments
print report bad tab
guest
You may want to rate the tab now too:
select rating
Wanna post a correction for this tab? Suggest correction