Oops, an error
Loading. Please wait.

Old Friends tab

by Ylvis
19 views 1 this week
no commentswrite comment
1 2 3 4 5
3 more votes to show rating
add to favorites
×
Save as Personal and add changes to this tab that will be seen only by you. Learn more ›
×
You can save this tab as Personal to edit and correct it or add notes. All changes will be seen only by you. Learn more »
launch autoscroll
font size
0
reset
how to read this tab
guitar tuner
edit
Autoscroll
slow
fast
+/-
esc
set tempo
stop
About this tab version
Full fingerstyle tab of song. Second guitar strums chords with a Capo on fret 8. Please rate or comment. Was this info helpful? Yes No
Ylvis - "Old Friends"


[Intro]

e|---------------------------------|
B|-----1---------1-------1---1-----|
G|-----------0-------0---------0---|  play 2x similary
D|-----2-------2-------2-------2---|
A|-3---------------3---------------|
E|---------3---------------3-------|



[Verse Part]

   C                                                 Am
e|---------------------------------|---------------------------------|
B|-----1---------1-------1---1-----|-----1---------1-------1---1-----|
G|-----------0-------0---------0---|-----------0-------2---------2---|
D|-----2-------2-------2-------2---|-----2-------2-------2-------2---|
A|-3---------------3---------------|-3---------------0-------0-------|
E|---------3---------------3-------|---------3-----------------------|

   Dm                                G
e|-----1---------------------1-----|-----3---------3-------3---------|
B|-------------3-----3---3---------|-----------3-------3-------------|
G|-----2-------2-------2-------2---|-------------0-------0-------0---|
D|-0-------0-------0-------0-------|-0-------0-------0-------0-------|
A|---------------------------------|---------------------------------|
E|---------------------------------|---------------------------------|

   C                                 Am
e|---------------------------------|---------------------------------|
B|-----1---------1-------1---1-----|-----1---------1-------1---1-----|
G|-----------0-------0---------0---|-----------0-------2---------2---|
D|-----2-------2-------2-------2---|-----2-------2-------2-------2---|
A|-3---------------3---------------|-0-------0-------0-------0-------|
E|---------3---------------3-------|---------------------------------|

   Dm              G                 C
e|-----1---------------3-----------|---------------------------------|
B|-----------3---0-----------0-----|-----1---------1-------1---1-----|
G|-----2-------2-----0-----0-------|-----------0-------0---------0---|
D|-0-------0-------0-----0---------|-----2-------2-------2-------2---|
A|---------------------------------|-3-------3-------3-------3-------|
E|---------------------------------|---------------------------------|



[Chorus]

   F               G                 C               Am
e|---------------------3-----------|---------------------------------|
B|-----1-------1-----------0---0---|-----1---------1-----1-----1-----|
G|---------2-----------------0-----|-----------0-----------2---------|
D|-3---------3---------------------|-----2-------2-------2-------2---|
A|---------------------------------|-3-------3-------0-------0-------|
E|-----------------3---------------|---------------------------------|

   F                                 G
e|---------------------------------|-----3---------3-----------------|
B|-----1---------1-------1---------|-----0-----0-------0-----3---2---|
G|-----------2---------2-------2---|-0-------0---0---0---0-----0-----|
D|-3-------3---3---3-------3-------|---------------------------------|
A|---------------------------------|---------------------------------|
E|---------------------------------|---------------------------------|

   F               G                 Am              D
e|---------------------3-----------|-----------------2---------------|
B|-----1-------1-----------0---0---|-----1-----------3---------------|
G|---------2-----------------0-----|-----2-----0-----2---------------|
D|-3---------3---------------------|---------2-------0---------------|
A|---------------------------------|-0-------------------------------|
E|-----------------3---------------|---------------------------------|

   F               G                 C               Am
e|---------------------3-----------|---------------------------------|
B|-----1-------1-----------0---0---|-----1---------1-----------------|
G|---------2-----------------0-----|-----------0-------0-------------|
D|-3---------3---------------------|-----2-------2---2---------------|
A|---------------------------------|-3-------3---------------0---2---|
E|-----------------3---------------|---------------------3-----------|



[Verse 2]

   C                                 Am
e|---------------------------------|---------------------------------|
B|-----1---------1-------1---1-----|-----1---------1-------1---------|
G|-----------0-------0---------0---|-----------2-------2-------2-----|
D|-----2-------2-------2-------2---|-----2-------2-------2-----------|
A|-3---------------3---------------|-0-------0-------0-------0-------|
E|---------3---------------3-------|---------------------------------|

   Dm                                G
e|-----1---------------------1-----|-----3---------3-------3---------|
B|-------------3-----3---3---------|-----------0-------0-------------|
G|-----2-------2-------2-------2---|-0-----------0-------0-------0---|
D|-0-------0-------0-------0-------|--------0--------0-------0-------|
A|---------------------------------|---------------------------------|
E|---------------------------------|---------------------------------|

   C                                 Am
e|---------------------------------|---------------------------------|
B|-----1---------1-------1---1-----|-----1---------1-------1---1-----|
G|-----------0-------0---------0---|-----------0-------2---------2---|
D|-----2-------2-------2-------2---|-----2-------2-------2-------2---|
A|-3---------------3---------------|-0-------0-------0-------0-------|
E|---------3---------------3-------|---------------------------------|

   Dm              G                 C
e|-----1---------------3-----------|---------------------------------|
B|-----------3---0-----------0-----|-----1---------1-------1---1-----|
G|-----2-------2-----0-----0-------|-----------0-------0---------0---|
D|-0-------0-------0-----0---------|-----2-------2-------2-------2---|
A|---------------------------------|-3-------3-------3-------3-------|
E|---------------------------------|---------------------------------|



[Chorus 2]

   F               G                 C               Am
e|---------------------3-----------|---------------------------------|
B|-----1-------1-----------0---0---|-----1---------1-----1-----1-----|
G|---------2-----------------0-----|-----------0-----------2---------|
D|-3---------3---------------------|-----2-------2-------2-------2---|
A|---------------------------------|-3-------3-------0-------0-------|
E|-----------------3---------------|---------------------------------|

   F                                 G
e|---------------------------------|-----3---------3-----------------|
B|-----1---------1-------1---------|-----0-----0-------0-----3---2---|
G|-----------2---------2-------2---|-0-------0---0---0---0-----0-----|
D|-3-------3---3---3-------3-------|---------------------------------|
A|---------------------------------|---------------------------------|
E|---------------------------------|---------------------------------|

   F               G                 Am              D
e|---------------------3-----------|-----------------2---------------|
B|-----1-------1-----------0---0---|-----1-----------3---------------|
G|---------2-----------------0-----|-----2-----0-----2---------------|
D|-3---------3---------------------|---------2-------0---------------|
A|---------------------------------|-0-------------------------------|
E|-----------------3---------------|---------------------------------|

   F               G                 C               Am
e|---------------------3-----------|---------------------------------|
B|-----1-------1-----------0---0---|-----1---------1-----------------|
G|---------2-----------------0-----|-----------0-------0-------------|
D|-3---------3---------------------|-----2-------2---2---------------|
A|---------------------------------|-3-------3---------------0---2---|
E|-----------------3---------------|---------------------3-----------|



[Verse 3]

   C                                 Am
e|---------------------------------|---------------------------------|
B|-----1---------1-------1---1-----|-----1---------1-------1---------|
G|-----------0-------0---------0---|-----------2-------2-------2-----|
D|-----2-------2-------2-------2---|-----2-------2-------2-----------|
A|-3---------------3---------------|-0-------0-------0-------0-------|
E|---------3---------------3-------|---------------------------------|

   Dm                                G                G7
e|-----1-------------0h1-----------|-----3--------3---1-------1------|
B|-------------3-----------3-------|----------0---------0---0--------|
G|-----2-------2-------2-------2---|-0----------0---------0----------|
D|-0-------0-------0-------0-------|---------------------------------|
A|---------------------------------|---------------------------------|
E|---------------------------------|---------------------------------|

   C                                 Am
e|---------------------------------|---------------------------------|
B|-----1---------1-------1---1-----|-----1---------1-------1---1-----|
G|-----------0-------0---------0---|-----------0-------2---------2---|
D|-----2-------2-------2-------2---|-----2-------2-------2-------2---|
A|-3---------------3---------------|-0-------0-------0-------0-------|
E|---------3---------------3-------|---------------------------------|

   Dm              G                 C
e|-----1---------------3-----------|---------------------------------|
B|-----------3---0-----------0-----|-----1---------1-------1---1-----|
G|-----2-------2-----0-----0-------|-----------0-------0---------0---|
D|-0-------0-------0-----0---------|-----2-------2-------2-------2---|
A|---------------------------------|-3-------3-------3-------3-------|
E|---------------------------------|---------------------------------|




[Chorus 3]

   F               G                 C               Am
e|---------------------3-----------|---------------------------------|
B|-----1-------1-----------0---0---|-----1---------1-----0h1---1-----|
G|---------2-----------------0-----|-----------0---------------------|
D|-3---------3---------------------|-----2-------2-------2-------2---|
A|---------------------------------|-3-------3-------0-------0-------|
E|-----------------3---------------|---------------------------------|

   F                                 G
e|---------------------------------|-----3---------3-----------------|
B|-----1---------1-------1---------|-----0-----0-------0-----3---2---|
G|-----------2---------2-------2---|-0-------0---0---0---0-----0-----|
D|-3-------3---3---3-------3-------|---------------------------------|
A|---------------------------------|---------------------------------|
E|---------------------------------|---------------------------------|

   F               G                 Am              D
e|---------------------3-----------|-----------------2---------------|
B|-----1-------1-----------0---0---|-----1-----------3---------------|
G|---------2-----------------0-----|-----2-----0-----2---------------|
D|-3---------3---------------------|---------2-------0---------------|
A|---------------------------------|-0-------------------------------|
E|-----------------3---------------|---------------------------------|

   F               G                 C               Am
e|---------------------3-----------|---------------------------------|
B|-----1-------1-----------0---0---|-----1---------1-----------------|
G|---------2-----------------0-----|-----------0-------0-------------|
D|-3---------3---------------------|-----2-------2---2---------------|
A|---------------------------------|-3-------3---------------0---2---|
E|-----------------3---------------|---------------------3-----------|



[Bridge]

   strum to the music
e|-3-------------------|-1---------0----------|-0---------1---------|-0----------------|
B|-0-------------------|-1---------1----------|-1---------1---------|-1----------------|
G|-0-------------------|-2---------0----------|-2---------2---------|-0----------------|
D|-0-------------------|-3---------2----------|-2---------3---------|-2----------------|
A|-x-------------------|-----------3----------|-0-------------------|-3----------------|
E|-3-------------------|----------------------|---------------------|------------------|

e|-3-------------------|-1---------0----------|-0---------1---------|-0----------------|-0----------------|
B|-0-------------------|-1---------1----------|-1---------1---------|-1----------------|-1----------------|
G|-0-------------------|-2---------0----------|-2---------2---------|-2----------------|-0----------------|
D|-0-------------------|-3---------2----------|-2---------3---------|-2----------------|-2----------------|
A|-x-------------------|-----------3----------|-0-------------------|-0----------------|-3----------------|
E|-3-------------------|----------------------|---------------------|------------------|------------------|



[Final Verse]

   singe strums
e|----------------|----------------|-1--------------|-1----------------------|
B|-1--------------|-1--------------|-3--------------|-0---------3h5-3\1-0h1--|
G|-0--------------|-2--------------|-2--------------|-0---------0---0---0----|
D|-2--------------|-2--------------|-0--------------|-0----------------------|
A|-3--------------|-0--------------|----------------|------------------------|
E|----------------|----------------|----------------|------------------------|

   C                                 Am
e|---------------------------------|---------------------------------|
B|-----1---------1-------1---1-----|-----1---------1-------1---1-----|
G|-----------0-------0---------0---|-----------0-------2---------2---|
D|-----2-------2-------2-------2---|-----2-------2-------2-------2---|
A|-3---------------3---------------|-0-------0-------0-------0-------|
E|---------3---------------3-------|---------------------------------|

   Dm              G                 C
e|-----1---------------3-----------|---------------------------------|
B|-----------3---0-----------0-----|-----1---------1-------1---1-----|
G|-----2-------2-----0-----0-------|-----------0-------0---------0---|
D|-0-------0-------0-----0---------|-----2-------2-------2-------2---|
A|---------------------------------|-3-------3-------3-------3-------|
E|---------------------------------|---------------------------------|



[Last Chorus]

   F               G                 C               Am
e|---------------------3-----------|---------------------------------|
B|-----1-------1-----------0---0---|-----1---------1-----0h1---1-----|
G|---------2-----------------0-----|-----------0---------------------|
D|-3---------3---------------------|-----2-------2-------2-------2---|
A|---------------------------------|-3-------3-------0-------0-------|
E|-----------------3---------------|---------------------------------|

   F                                 G
e|---------------------------------|-----3---------3-----------------|
B|-----1---------1-------1---------|-----0-----0-------0-----3---2---|
G|-----------2---------2-------2---|-0-------0---0---0---0-----0-----|
D|-3-------3---3---3-------3-------|---------------------------------|
A|---------------------------------|---------------------------------|
E|---------------------------------|---------------------------------|

   F               G                 Am              D
e|---------------------3-----------|-----------------2---------------|
B|-----1-------1-----------0---0---|-----1-----------3---------------|
G|---------2-----------------0-----|-----2-----0-----2---------------|
D|-3---------3---------------------|---------2-------0---------------|
A|---------------------------------|-0-------------------------------|
E|-----------------3---------------|---------------------------------|

   F               G                 Am
e|---------------------3-----------|---------------------------------|
B|-----1-------1-----------0---0---|-----1-------1---3---3-1p0-------|
G|---------2-----------------0-----|---------------2---2-------0-----|
D|-3---------3---------------------|-----2-------2-------------------|
A|---------------------------------|-0-------0-------0---------------|
E|-----------------3---------------|---------------------------------|

   F               G                 Am
e|---------------------3-----------|----------------------------------|
B|-----1-------1-----------0---0---|-----1---2-3-/5-3-3---3---1-------|
G|---------2-----------------0-----|--------------------2---2---0-----|
D|-3---------3---------------------|-----2----------------------------|
A|---------------------------------|-0-------0---------0------0-------|
E|-----------------3---------------|----------------------------------|

e|-1---------------3---------------|----------------------------------|
B|-1---------------0---------------|-1--------------------------------|
G|-2---------------0---------------|-0--------------------------------|
D|-3---------------0---------------|-2--------------------------------|
A|---------------------------------|-3--------------------------------|
E|---------------------------------|----------------------------------|


************************************

| h   Hammer-on
| p   Pull-off
| /   Slide up
| \   Slide down

************************************

            
            
Suggest correction
Creating personal tab
Creating personal tab
You can edit any tab online and save it as your Personal.

You can edit, replace or remove any tab part or add personal notes – all changes will be seen only by you.

Personal tabs can be accessed anytime from any device, even offline.
Learn more »
Give kudos to tab author, rate the tab!
1 2 3 4 5
comments
print report bad tab
guest
You may want to rate the tab now too:
select rating
Wanna post a correction for this tab? Suggest correction