Oops, an error
Loading. Please wait.
39,752 views 51 this week
no commentswrite comment
1 2 3 4 5
x 11
add to favorites
launch autoscroll
font size
0
reset
how to read this tab
guitar tuner
×
Best way to learn
"Adagio"
Autoscroll
slow
fast
+/-
esc
set tempo
stop
Author
Difficulty
  follow
intermediate
here is how I play Adagio.
by the way its tuned down 1/2 step


   ~ = Vibrato
   h = hammer on
   p = pull off
   t = tap
   / = slide
   x = dead note
   b = bend
   r = release
   PM... = palm mute

Gain = 8, treble = 7, mid = 5, bass = 4
                                                      *let ring
e-------------------------------------------------------------------------|
b-------12-12/17~~~~~-----------------------------------------------------|
g----11-----------------12-14p12/11~~~~--11h12h14p12p11-9~~~~~~~~~~~~~~~~-|
d-13----------------------------------------------------------------------|
a-------------------------------------------------------------------------|
e----------------------------------------------------------------t12~~~~~-|
                                                                *tap with
                                                                right hand.


right here while the E is ringing I turn on reverb

--------------------------------------------------------------------------|
-12~~---------------------------------------------13~~-12-----------------|
------14~~-14p12/11----------1112141211-------------------14p12/11---11---|
--------------------14-14~--------------14-13~~---------------------------|
--------------------------------------------------------------------------|
--------------------------------------------------------------------------|

--------------------------------------------------------------------------|
-------------------15/17~~-15--17--13--15--12-13-15-13-12-12h13~~~~-------|
--11b(12)r-9~~------------------------------------------------------------|
--------------------------------------------------------------------------|
--------------------------------------------------------------------------|
--------------------------------------------------------------------------|

-------------8-10~~---8-10-7-8-----------------------------------------------|
-----8-10-12-------------------10-10/12~---------------------------10-12-13~-|
-8-9-------------------------------------------------------9-11-12-----------|
---------------------------------------------------9-10-12-------------------|
-------------------------------------------9-10-12---------------------------|
-----------------------------------------------------------------------------|


-----------------------------------------------------------------14-17/20~~-|
-12-13-10-12-8-8/10~~---12~~----------------------------12-12/16------------|
-----------------------------14-14p12/11-------------11---------------------|
-----------------------------------------14-14~~--13------------------------|
----------------------------------------------------------------------------|
----------------------------------------------------------------------------|

-12-14-15-14h15p14p12-11-12-10~--10-12-13~-12h13p12p10-------------12------|
-------------------------------------------------------13~~--10-13----12~--|
---------------------------------------------------------------------------|
---------------------------------------------------------------------------|
---------------------------------------------------------------------------|
---------------------------------------------------------------------------|


------12-------------------------------------------------------------------|
-8/12----10~--10-12-13~--13p12p10/8~---8-10-12~--12p10p8/7~--7-8-10~-------|
---------------------------------------------------------------------------|
---------------------------------------------------------------------------|
---------------------------------------------------------------------------|
---------------------------------------------------------------------------|

                    PM.........
--------------------------------------12-11-12-14-15-17-17/19-----21b(24)--|
-10p8p7----------------------------12-------------------------17~----------|
--------9--------------------11-12-----------------------------------------|
----------9b(10)r~--------14-----------------------------------------------|
-----------------------14--------------------------------------------------|
---------------------------------------------------------------------------|


there you go, I hope it helps.
Now you can play this before Far Beyond The Sun like yngwie does.
Suggest correction
comments
print report bad tab
guest
You may want to rate the tab now too:
select rating
Wanna post a correction for this tab? Suggest correction