Oops, an error
Loading. Please wait.

Amadeus Quattro Valvole Tab

version 1
version 1

Whole song

Interactive

9,345 views 6 this week
no commentswrite comment
1 2 3 4 5
excellent!
x 4
add to favorites
launch autoscroll
font size
0
reset
how to read this tab
guitar tuner
Autoscroll
slow
fast
+/-
esc
set tempo
stop
Help us to improve Ultimate-Guitar.com Take our survey!
×
Author
                          Yngwie Malmsteen - Amadeus Quattro Valvole

Tabbed by: Waltteri Reunamo
Email: wrshredder@hotmail.com

This is my first attemp to make a tab so there is probably few mistakes, the solo is too
complicated to mee to tab so i leave it be. 

Please feel free to send me comments or questions.. 

Guitar should be tuned half step down. Eb.


 (fig. 1)

e|-------------------------------------------|
B|--5~-5h7-8~----8~-7h5-------5--------------|
G|----------------------7-7~----7-5-5~-------|
D|-------------------------------------------|
A|-------------------------------------------|
E|-------------------------------------------|

 (fig. 2)

e|--------------------------------------|-----------------------------------------------|
B|--------------------------------------|-----------------------------------------------|
G|--------------------------------------|------------2----------------------------------| 
D|---2--2-4-5~--5~-4-2--------2---------|-2--2-4-5~----5-4-2-4~--2-1h2-1----------------|
A|---2-----------------5-5~-----5-3-3~--|-2------------------------------3-2------------|
E|---0----------------------------------|-0----------------------------------5-3-2------|


 (fig. 3) 
 

e|--------------------------------------|------------------------------------------------|
B|-------3-4~--4~-3---------------------|-------3-4~--6-4-3---3~-------------------------|
G|--5~-5------------5h3-3~-5h3----------|--5~-5-------------5------5-3h5-----------------|
D|-----------------------------6-6~-----|--------------------------------6-5-3--------2--|
A|--------------------------------------|--------------------------------------6-5-3--2--|
E|--------------------------------------|---------------------------------------------0--|


 (fig. 4a)

e|---------------------------------|---------------------------------|-------------------------------|
B|-----9-10-9~-----9-10-9----------|-----9-10-9tr-----9-10-9---------|----9-10-9~----9-10-9----------|
G|----9-----------9-------11-9-8---|----9------------9-------11-9-8--|---9----------9-------11-9-8---|
D|--11----------11-----------------|--11-----------11----------------|-11---------11-----------------|
A|---------------------------------|---------------------------------|-------------------------------|
E|---------------------------------|---------------------------------|-------------------------------|



e|---------------------------------------------------------------------------------------------------|
B|-------9--------9--------10-8-9~---9-10-9-8-9-10-9-8-9-10-9-8-9-10-9-8-9-10-9-8-9-10-9-8-9~~-------|
G|-----9---9----9---9----9---------------------------------------------------------------------------|
D|--11-------11-------11-----------------------------------------------------------------------------|
A|---------------------------------------------------------------------------------------------------|
E|---------------------------------------------------------------------------------------------------|


 (fig. 5)

   |fast...|  |slow..|          |fast..     |  |slow..    |
e|------16-21--16--------------------14h16h17---14-----------------------------------------|
B|----17----------17---------------16--------------16--------------------------------------|
G|--18---------------18--17tr----17-------------------17-14~-14h16p14-13~~-----------------|
D|-----------------------------------------------------------------------------------------|
A|-----------------------------------------------------------------------------------------|
E|-----------------------------------------------------------------------------------------|

                                                                                            
e|--11----------12----------14----------16----------17-16-14---------------------------------------------------------------|
B|-----14-13-14----14-13-14----14-13-14----14-13-14---------17-16-14-------------------------------------13-14-16-13tr-----|
G|-------------------------------------------------------------------16-14-13-----------------------14p13------------------|
D|----------------------------------------------------------------------------16-14-13------------14-----------------------|
A|-------------------------------------------------------------------------------------16-15-15h16-------------------------|
E|-------------------------------------------------------------------------------------------------------------------------|


 (play fig. 5 two times) 

 (fig. 6) (same as fig.5 but half step higher), (also played 2 times)

e|------17-22--17-------------------15h17h18--15-------------------------------------------|
B|----18----------18--------------17-------------17----------------------------------------|
G|--19---------------19--18tr---18------------------18-15~-5h7p5-4~------------------------|
D|-----------------------------------------------------------------------------------------|
A|-----------------------------------------------------------------------------------------|
E|-----------------------------------------------------------------------------------------|

                                                                                            

e|--12----------13----------15----------17----------18-17-15---------------------------------------------------------------|
B|-----15-14-15----15-14-15----15-14-15----15-14-15----------18-17-15------------------------------------14-15-17-14tr-----|
G|--------------------------------------------------------------------17-15-14----------------------15p14------------------|
D|----------------------------------------------------------------------------17-15-14------------15-----------------------|
A|-------------------------------------------------------------------------------------17-16-16h17-------------------------|
E|-------------------------------------------------------------------------------------------------------------------------|


 (fig. 2)

e|--------------------------------------|-----------------------------------------------|
B|--------------------------------------|-----------------------------------------------|
G|--------------------------------------|------------2----------------------------------| 
D|---2--2-4-5~--5~-4-2--------2---------|-2--2-4-5~----5-4-2-4~--2-1h2-1----------------|
A|---2-----------------5-5~-----5-3-3~--|-2------------------------------3-2------------|
E|---0----------------------------------|-0----------------------------------5-3-2------|


 (fig. 7)
 (use palm mute in these) 
e|---------------------------------|----------------------------------------------------|
B|---------------------------------|----------------------------------------------------|
G|------4-------------4---4-5---5--|-4-----4-----4-----4------------7p5p4---------------|
D|----5-----5---5---5---5-----7----|-----5-----5-----5-----5--7p5p4---------------------|
A|--7-----7---7---7----------------|---7-----7-----7-----7------------------------------|
E|---------------------------------|----------------------------------------------------|



e|-----------------------------------|--------------------------------------------------|
B|-----------------------------------|-------------------3-----3-3-3----3---------------|
G|--4-----4-----4-----4-----4-5---5--|-4-----4--5-----5------4--------4-----------------|
D|------5-----5-----5-----5-----7----|-----5--------7------6--------6-------------------|
A|----7-----7-----7-----7------------|---7--------9-------------------------------------|
E|-----------------------------------|--------------------------------------------------|



e|-----------------------------------|--------------------------------------------------|
B|--5-----5-----5-----5-----5-6---6--|-5-----5-----5-----5--------------8p7-5-----------|
G|------5-----5-----5-----5-----7----|-----5-----5-----5-----5--7p5p4h5-----------------|
D|----7-----7-----7-----7------------|---7-----7-----7-----7----------------------------|
A|-----------------------------------|--------------------------------------------------|
E|-----------------------------------|--------------------------------------------------|



e|-----------------------------------|------------------------------|
B|------5-----5-----5-----5-6---6----|------------------------------|
G|----5-----5-----5-----5-----7------|--Solo------------------------|
D|--7-----7-----7-----7--------------|--starts----------------------|
A|-----------------------------------|--here...---------------------|
E|-----------------------------------|------------------------------|


   
 (fig. 4b)
 (the solo is still on, when this is played)

e|---------------------------------|---------------------------------|-------------------------------|
B|-----9-10-9~-----9-10-9----------|-----9-10-9tr-----9-10-9---------|----9-10-9~----9-10-9----------|
G|----9-----------9-------11-9-8---|----9------------9-------11-9-8--|---9----------9-------11-9-8---|
D|--11----------11-----------------|--11-----------11----------------|-11---------11-----------------|
A|---------------------------------|---------------------------------|-------------------------------|
E|---------------------------------|---------------------------------|-------------------------------|


                                |solo ends here..                                                   
e|-------------------------------16-17-16-15-16-17-16-15-16-17-16-15-16-17-16-15-16-17-16-15-etc..---|
B|-------9--------9--------10-8----------------------------------------------------------------------|
G|-----9---9----9---9----9---------------------------------------------------------------------------|
D|--11-------11-------11-----------------------------------------------------------------------------|
A|---------------------------------------------------------------------------------------------------|
E|---------------------------------------------------------------------------------------------------|



The song continues like this:

Play: fig. 5  (two times)
      
      fig. 2  (two times) 

      fig. 3
 
      fig. 4b 

      fig. 5  (two times)

      fig. 2  (two times)

      fig. 3

      fig, 2 (once)


-----------------------------------------|    
            b=bend                       | This is only a rough guide how 
            tr=trill                     | to play this song. I dind't use
            h=hammer on                  |  any "slowing down"-tools ,so 
            p=pull off                   |  there is few mistakes. But i  
            ~=vibrato                    |  hope you like it! 
                                         |
-----------------------------------------|

Suggest correction
What's this?
You can suggest a correction to this tab. Community and Mods will review your correction and vote to approve or reject it.
comments
print report bad tab
guest
You may want to rate the tab now too:
select rating
Please do not post tabs as comments. Select "correction" instead!