Oops, an error
Loading. Please wait.

Big Foot Tab

version 1
version 1

Whole song

Interactive

4,421 views 15 this week
no commentswrite comment
1 2 3 4 5
please rate
add to favorites
launch autoscroll
font size
0
reset
how to read this tab
guitar tuner
Autoscroll
slow
fast
+/-
esc
set tempo
stop
Help us to improve Ultimate-Guitar.com Take our survey!
×
Yngwie Malmsteen
Big Foot

Pick scratch

Main riff                                                                 
----------------------------------|-----------------------------|
----------------------------------|-----------------------------|
------4---2-----0-----------------|------4---2-----0------------|
----4---4---4-----4---4-2---------|----4---4---4-----4---5b-----|
--2-----------2-----2-----5-4-2-0-|--2-----------2-----2--------|
----------------------------------|-----------------------------|


                                         
----------------------------------------|
----------------------------------------|
------4---2-----0-----------------------|
----4---4---4-----4---4h2---2-----------|
--2-----------2-----2-----5---5h4h5h4h2-|
----------------------------------------|


                                                                      
----------------------------------|----------------------------------|
----------------------------------|----------------------------------|
------4---2-----0-----------------|------4---2-----0-----------------|
----4---4---4-----4---4-2---------|----4---4---4-----4---4-2---------|
--2-----------2-----2-----5-4-2-0-|--2-----------2-----2-----5-4-2-0-|
----------------------------------|----------------------------------|


                                                                      
----------------------------------|----------------------------------|
----------------------------------|----------------------------------|
------4---2-----0-----------------|------4---2-----0-----------------|
----4---4---4-----4---4-2---------|----4---4---4-----4---4-2---------|
--2-----------2-----2-----5-4-2-0-|--2-----------2-----2-----5-4-2-0-|
----------------------------------|----------------------------------|


                                                             
----------------------------------|---|---------------------|
----------------------------------|---|---------------------|
------4---2-----0-----------------|---|---------------------|
----4---4---4-----4---4-2---------|---|---------------------|
--2-----------2-----2-----5-4-2-0-|---|--4---2---4----------|
----------------------------------|---|--2---0---2----------|


Verse                                                                          
-------------------------|---------------------|-------------------------|
-------------------------|---------------------|-------------------------|
-------------------------|---------------------|-------------------------|
-------------------------|---------------------|-------------------------|
--2---4---2--------------|--4---2---4----------|--2---4---2--------------|
--0---2---0--------3-2-0-|--2---0---2----------|--0---2---0--------2-3-0-|


                                                                      
---------------------|-------------------------|---------------------|
---------------------|-------------------------|---------------------|
---------------------|-------------------------|---------------------|
---------------------|-------------------------|---------------------|
--4---2---4----------|--2---4---2--------------|--4---2---4----------|
--2---0---2----------|--0---2---0--------0-3-0-|--2---0---2----------|


                                                       
-------------------------|---|------------------------|
-------------------------|---|------------------------|
-------------------------|---|------------------------|
-------------------------|---|------------------------|
--2---4---2--------------|---|--5---4---2---4---5--7--|
--0---2---0--------3-2-0-|---|--3---2---0---2---3--5--|


Solo - intro                                                   
--------------------------------------------------|
--------------------------------------------------|
----4-7---4-7---4-7---4-7---4-7---4-7---4-7---4-7-|
--4-----4-----4-----4-----5-----5-----5-----5-----|
--------------------------------------------------|
--------------------------------------------------|


                                                   
--------------------------------------------------|
--------------------------------------------------|
----4-7---4-7---4-7---4-7---6-9---6-9---6-9---6-9-|
--6-----6-----6-----6-----7-----7-----7-----7-----|
--------------------------------------------------|
--------------------------------------------------|


                                                       
------------------------------------------------------|
------------------------------------------------------|
----6-9---6-9---6-9---6-9---7-11---7-11---9-12---9-12-|
--8-----8-----8-----8-----9------9------9------9------|
------------------------------------------------------|
------------------------------------------------------|


                                                             
------------------------------------------------------------|
------------------------------------------------------------|
-----9-12----9-12----11-14----9-12---7-11---6-9---4-7---1-4-|
--11------11------12-------11------9------7-----5-----3-----|
------------------------------------------------------------|
------------------------------------------------------------|


Two guitars                                                    
---------------------------------------------------|
---------------------------------------------------|
----4-7---4-7---4-7---4-7----3-6---3-6---3-6---3-6-|
--4-----4-----4-----4-----4------4-----4-----4-----|
--4-----------------------16-----------------------|
--2------------------------------------------------|


                                
--------------------------|---||
--------------------------|---||
----3-6---3-6---3-6---3-6-|---||
--4-----4-----4-----4-----|---||
--4-----------------------|---||
--2-----------------------|---||
Suggest correction
Give kudos to tab author, rate the tab!
1 2 3 4 5
comments
print report bad tab
guest
You may want to rate the tab now too:
select rating
Please do not post tabs as comments. Select "correction" instead!