Oops, an error
Loading. Please wait.

Evil Eye Tab

version 1
version 1

Whole song

Interactive

61,167 views 36 this week
11 commentsread comments
1 2 3 4 5
x 12
add to favorites
×
Save as Personal and add changes to this tab that will be seen only by you. Learn more ›
×
You can save this tab as Personal to edit and correct it or add notes. All changes will be seen only by you. Learn more »
save as personal
new!
launch autoscroll
font size
0
reset
how to read this tab
guitar tuner
Autoscroll
slow
fast
+/-
esc
set tempo
stop
Yngwie Malmsteen - Evil Eye
from Rising Force
letostak@ix.netcom.com (Judy Letostak)
music.shop@lasernet.com
FidoNet 1:202/762  The Music Shop BBS (619)423-4970

e|--12--10--|---------10--13--|--12--10----------12--10--|----------------|
B|----------|-13--10----------|----------13--12----------|-13--12--10--9--|
G|----------|-----------------|--------------------------|----------------|
D|----------|-----------------|--------------------------|----------------|
A|----------|-----------------|--------------------------|----------------|
E|----------|-----------------|--------------------------|----------------|

e|----------|-----------------|--------------------------|----------------|
B|----------|-----------------|--------------------------|----------------|
G|----------|-----------------|--------------------------|----------------|
D|----------|--7---5----------|-------4----6-------------|--7-------------|
A|----------|----------8---5--|--7--------------7--------|------5---7-----|
E|----------|-----------------|--------------------------|----------------|

e|--------|--------12---10----|-------------10---13---|-12--10-------------|
B|--10----|--10---------------|--13---10--------------|---------13--12-----|
G|--------|-------------------|-----------------------|--------------------|
D|--------|-------------------|-----------------------|--------------------|
A|--------|-------------------|-----------------------|--------------------|
E|--------|-------------------|-----------------------|--------------------|

e|--------|-------------------|-----------------------|--------------------|
B|--------|-------------------|-----------------------|--------------------|
G|--------|-------------------|-----------------------|--------------------|
D|--------|-------------------|---7---5---------------|------4---6---------|
A|--------|-------------------|-------------8----5----|--7-----------------|
E|---0----|--5----------------|-----------------------|--------------------|

e|--12--10---|----------------------10--13----12p10---|--12---------------|
B|-----------|-13---12--10------12--------------------|-------------------|
G|-----------|--------------13------------------------|-------------------|
D|-----------|----------------------------------------|-------------------|
A|-----------|----------------------------------------|-------------------|
E|-----------|----------------------------------------|-------------------|

e|-----------|----------------------7---10-----8p7----|---8---------------|
B|-----------|------------------9---------------------|-------------------|
G|-----------|---------------9------------------------|-------------------|
D|-----------|-10----9---7----------------------------|-------------------|
A|-----7-----|----------------------------------------|-------------------|
E|-----------|----------------------------------------|-------------------|

e|--------------------------------|--------------------------------------|
B|--------------------------------|--------------------------------------|
G|--------------9---10~-----------|------------7----9~-------------------|
D|--10~----12-------------9---7---|--9~---10-------------7---6-----------|
A|--------------------------------|--------------------------------------|
E|--------------------------------|--------------------------------------|

e|--------------------------------|--------------------------------------|
B|--------------------------------|--------------------------------------|
G|--------------------------------|--------------------------------------|
D|--------------------------------|--------------------------------------|
A|----------2---3----5~-----------|------------2---3~--------------------|
E|---5~-------------------3---2---|--3~----5-------------1---0-----------|

e|----------------------------|-15p12-------/12h15h20p12h15p12------------|
B|----------------------------|-------13-12--------------------13---------|
G|------7---5h7p5\4~-----/----|-----------------------------------12~-----|
D|--7~------------------------|---------------------------------------10-9|
A|----------------------------|-------------------------------------------|
E|----------------------------|-------------------------------------------|

e|----------------------------|-------------------------------------------|
B|----------------------------|-------------------------------------------|
G|----------------------------|--5----------------------------------------|
D|------7---------------------|--5----------------------------------------|
A|------5---------------------|--3----------------------------------------|
E|--1--------3----------------|----------------------------------------5-4|

e|--------------------------------|--------------------------------10h12h13-|
B|--------------------------------|-----------------------10-12-13----------|
G|---------------7---9~-----------|---------------9-10-12-------------------|
D|--9---9---10-------------7---6--|-7--10-9-10-12---------------------------|
A|--------------------------------|-----------------------------------------|
E|--------------------------------|-----------------------------------------|

e|--------------------------------|---------------------------------------|
B|--------------------------------|---------------------------------------|
G|--------------------------------|---------------------------------------|
D|--------------------------------|---------------3-----------------2~----|
A|--------------2---3~------------|---------------------------------------|
E|--3---3---5-------------1----0--|--1~-----------------------------------|

e|-p12p10-------------------|
B|---------13p12p10\--------|
G|------------------9--10---|
D|--------------------------|
A|--------------------------|
E|--------------------------|

e|--------------------------|
B|--------------------------|
G|--------------------------|
D|--------------------------|
A|--------------------------|
E|------------0-------------|

e|---/15bf-------------|---dive-w/bar------------------------------------|
B|---------------------|-------------------------------------------------|
G|---------------------|-------------------------------------------------|
D|---------------------|-------------------------------------------------|
A|---------------------|-------------------------------------------------|
E|---------------------|-------------------------------------------------|

e|------------------------|----------------------------------------------|
B|------------------------|----------------------------------------------|
G|------2-----1-----------|----------------------------------------------|
D|---------3-----2--------|-3-----2--------------------------------------|
A|--2---------------------|----5-----3--3p2p0---3---2--------------------|
E|--0---------------0--0--|---------------------1---0--------------------|

e|-------------------------0---|-13p12p10----12p10----------10------------ |
B|-------------------------0---|----------13-------13-12-13----13p12p10----|
G|-------2-----1---------------|----------------------------------------13~|
D|----------3-----2------------|-------------------------------------------|
A|-x/3----------------2--------|-------------------------------------------|
E|--------------------0--------|-------------------------------------------|

e|----------------------|--------------------------|----------------------|
B|----------------------|--------------------------|----------------------|
G|----2-----1-----------|--------------------------|------2-----1---------|
D|-------3-----2--------|-3-----2------------------|---------3-----2------|
A|-2--------------------|----5-----3--2--0--3--2---|-x/3--------------2---|
E|-0--------------0--0--|-------------------1--0---|------------------0---|

e|-------------|-------------------------|-------------------------------|
B|-------------|-------------------------|-------------------------------|
G|-------------|-------2-----1-----------|-------------------------------|
D|-------------|----------3-----2--------|-3-----2-----------------------|
A|-------------|--2----------------------|----5-----3--3p2p0--3--2-------|
E|-------------|--0----------------0--0--|--------------------1--0-------|

e|-------------------------|-----------------------8-10-12---------------|
B|-------------------------|---------------9-10-12-----------------------|
G|-----2-----1-------------|-------9-10-12-------------------------------|
D|-/2-----3-----2-------9--|-10-12---------------------------------------|
A|-----------------2-------|---------------------------------------------|
E|-----------------0-------|---------------------------------------------|

e|----------------------|---------------------------|---------------------|
B|----------------------|---------------------------|---------------------|
G|----2-----1-----------|---------------------------|------2-----1--------|
D|-------3-----2--------|-3-----2-------------------|---------3-----2-----|
A|----------------------|----5-----3--3p2p0--3--2---|-x/3--------------2--|
E|-0--------------0--0--|--------------------1--0---|------------------0--|

for space saving (and hand cramping) I've left out the 2nd guitar part
I'm just putting in the main guitar in the song.  The second guitar
is usually just pedaling a note or a 5 chord for the heavyiness.

 (A)
e|------------------------|------------------|--------------------------|
B|------------------------|------------------|--------------------------|
G|o-----------7-9---10----|-9---7------------|--------7-9---10----------|
D|o-----7-10------7----7--|---7---9-10-7-9-6-|---7-10-----7----7--------|
A|---0--------------------|------------------|-0------------------------|
E|------------------------|------------------|--------------------------|

e|---------------------|
B|---------------------|
G|-9h10-9-7-5-7--5-4--o|
D|--------------------o|
A|---------------------|
E|---------------------|

e|-------------------------|-------------------------|--------------------|
B|-------------------------|-------------------------|--------------------|
G|-------------------------|-------3--2--------------|--------------------|
D|----2--5--3--2-----------|----2--------5--3--2-----|----3--7--5--3------|
A|-3--------------5--3--2--|-4--------------------4--|-5--------------7---|
E|-------------------------|-------------------------|--------------------|

                                                                End A
e|--------|-------------------------|--------------------------|------|------|
B|--------|-------------------------|--------------------------|------|------|
G|--------|-------5--4--------------|--------------------------|------|------|
D|--------|----4--------7--5--4-----|--------------------------|------|------|
A|--5--4--|-6--------------------6--|--------------------------|------|------|
E|--------|-------------------------|-0--1--0--1--0--1--0--1---|------|------|

e|-------------------------|----------|----------------------------------|
B|-------------------------|----------|----------------------------------|
G|-------------------------|----------|----------------------------------|
D|-2--3--0--2-----2--------|-2--------|----------------------------------|
A|-------------3-----2--3--|-0--------|----------------------------------|
E|-------------------------|----------|----------------------------------|

e|----------------------|--------------------------|---------------------|
B|----------------------|--------------------------|---------------------|
G|----2-----1-----------|--------------------------|-----2-----1---------|
D|-------3-----2--------|-3-----2------------------|--------3-----2------|
A|-2--------------------|----5-----3--3p2p0--------|-/3---------------2--|
E|-0--------------0--0--|--------------------1--0--|------------------0--|

e|-/12/13p10--------------------------------------|----------------------|
B|-----------13-12-10-----------------------------|----------------------|
G|--------------------13-12-10\9------------------|----2-----1-----------|
D|-------------------------------12-10-9----------|-------3-----2--------|
A|----------------------------------------11b1/2--|-2--------------------|
E|------------------------------------------------|-0--------------0--0--|

e|-----------------------------|-----------------------|---------------13-|
B|-----------------------------|-----------------------|-12-10-12-10-9----|
G|-----------------------------|-----2-----1-----------|------------------|
D|-3~-----2--------------------|--------3-----2--------|------------------|
A|-----5-----3--3p2p0---3--2---|-/3---------------2----|------------------|
E|----------------------1--0---|------------------0----|------------------|

e|----------------------|----------------------------|-------------------|
B|----------------------|----------------------------|-------------------|
G|----2-----1-----------|----------------------------|----2-----1--------|
D|-------3-----2--------|-3-----2--------------------|-------3-----2-----|
A|-2--------------------|----5-----3--3p2p0---3--2---|-3--------------2--|
E|-0--------------0--0--|---------------------1--0---|----------------0--|

   1 1/2
e|-/21b-~~~---|----------------------|-----------------------------------|
B|------------|----------------------|-----------------------------------|
G|------------|----2-----1-----------|-----------------------------------|
D|------------|-------3-----2--------|-3-----2---------------------------|
A|------------|-2--------------------|----5-----3--3p2p0--3--2-----------|
E|------------|-0--------------0--0--|--------------------1--0-----------|

e|---------------------|-----------|-------------------------------------|
B|---------------------|-----------|-------------------------------------|
G|------2-----1--------|-----------|---play-(A)--------------------------|
D|---------3-----2-----|-----------|-------------------------------------|
A|-x/3--------------2--|-----------|-------------------------------------|
E|------------------0--|-----------|-------------------------------------|

Pedal A5 for 7 bars
e|-----------------------------------------------|-------------------------|
B|-10h13p12p10-9h12p10p9-12h15p13p12-10h13p12p10-|-13h17p15p13-12h15p13p12-|
G|-----------------------------------------------|-------------------------|
D|-----------------------------------------------|-------------------------|
A|-----------------------------------------------|-------------------------|
E|-----------------------------------------------|-------------------------|

e|-----------------------|------------------------------------------------|
B|-10h13p12p10-9h12p10p9-|-10h13p12p10-9h12p10p9-12h15p13p12-10h13p12p10--|
G|-----------------------|------------------------------------------------|
D|-----------------------|------------------------------------------------|
A|-----------------------|------------------------------------------------|
E|-----------------------|------------------------------------------------|

                                                          1 1/2
e|-----------------------------------------------|--------21b~~~---------|
B|-13h17p15p13-12h15p13p12-10h13p12p10-9h12p10p9-|-10--------------------|
G|-----------------------------------------------|-----------------------|
D|-----------------------------------------------|-----------------------|
A|-----------------------------------------------|-----------------------|
E|-----------------------------------------------|-----------------------|

e|-19-17-16-----------------|--------------------------------------------|
B|----------19-17-15--------|----------------------------------13bf------|
G|-------------------17-16--|-14\x---------------------------------------|
D|--------------------------|-------15-14-12-----------------------------|
A|--------------------------|----------------15-14-12-11~----------------|
E|--------------------------|--------------------------------------------|

e|-10-----------|-12h13p12p10-12-x----------12h13p12p10----------12-12-12-|
B|-----13p10----|------------------13p12p10-------------13p12p10----------|
G|--------------|---------------------------------------------------------|
D|--------------|---------------------------------------------------------|
A|--------------|---------------------------------------------------------|
E|--------------|---------------------------------------------------------|

e|--x--13|p12p10----12p10--------------------------------------------------|
B|-------|-------13-------13-12p10---10h12p10\9----------------------------|
G|-------|-------------------------x------------12p10-9h10p9------------4--|
D|-------|---------------------------------------------------12-x\5-6h7----|
A|-------|-----------------------------------------------------------------|
E|-------|-----------------------------------------------------------------|

e|-----------------------------------|-/17bf--rb17p12-16~----------------|
B|-----------------------------------|-----------------------------------|
G|-----------------------------------|-----------------------------------|
D|-7-6-------------------------------|-----------------------------------|
A|-----8-7-5-------------------------|-----------------------------------|
E|-----------8-7-5-4p0---dive-w/bar--|-----------------------------------|

e|------------------------------16h19p16----|------16----------16h19p16---|
B|-----15h17p15h17--15h17p15h17----------17p|15h17----17p15h17------------|
G|-/16--------------------------------------|-----------------------------|
D|------------------------------------------|-----------------------------|
A|------------------------------------------|-----------------------------|
E|------------------------------------------|-----------------------------|

e|----------16----------|-16h20px----16----------16----------16-17bf-------|
B|-17p15h17----17p15h17-|---------17----17p15h17----17p15h17---------------|
G|----------------------|----------------------x---------------------------|
D|----------------------|--------------------------------------------------|
A|----------------------|--------------------------------------------------|
E|----------------------|--------------------------------------------------|

  hold bend
e|--17---17---17---|--17bf--17-20-19-17-16-19-17p16----------16-----------|
B|-----------------|--------------------------------18-17-18----18-17-15--|
G|-----------------|------------------------------------------------------|
D|-----------------|------------------------------------------------------|
A|-----------------|------------------------------------------------------|
E|-----------------|------------------------------------------------------|

                                             1 1/2
e|--------------------------------------------------|--------------------|
B|-18-17-15-13-17-15-13-12-15-13-12-13-12-----------|-----------13bf-----|
G|----------------------------------------14-13b----|--rb13~-------------|
D|--------------------------------------------------|--------------------|
A|--------------------------------------------------|--------------------|
E|--------------------------------------------------|--------------------|

e|-----------|-10----------13p10---------------------|--------------------|
B|---13bf----|----13-12-10-------13p12p10\9----------|-13-12-10-9---------|
G|-----------|------------------------------12-10p9--|------------12-10p9-|
D|-----------|---------------------------------------|--------------------|
A|-----------|---------------------------------------|--------------------|
E|-----------|---------------------------------------|--------------------|

e|-----------------------------|----------------------|--------------------|
B|-----------10p9--------------|----------------------|-----------9h10p9---|
G|-----------------12-10-9-----|-10p9-----------------|-9h10p9h10----------|
D|--12p10p9----------------12--|------12-10-9b-1/2~---|--------------------|
A|-----------------------------|----------------------|--------------------|
E|-----------------------------|----------------------|--------------------|

                                                           1/2
e|-----------12h13p12h13/|16-16-16-16-17-17-17-17-19-19-19-19b------------|
B|-/12h13p12-------------|------------------------------------------------|
G|-----------------------|------------------------------------------------|
D|-----------------------|------------------------------------------------|
A|-----------------------|------------------------------------------------|
E|-----------------------|------------------------------------------------|

e|-rb19---17-20-19-17-16-|-19-17-16----------20-19-17-16----------19p17-16|
B|-----------------------|----------18-17-15-------------18-17-15---------|
G|-----------------------|------------------------------------------------|
D|-----------------------|------------------------------------------------|
A|-----------------------|------------------------------------------------|
E|-----------------------|------------------------------------------------|

                                       1 1/2
e|-17-16-------20-19-17-16-17-16---------21b--|-~---21b---rb21-----\-----|
B|-------18-17-------------------18-17-x------|--------------------------|
G|--------------------------------------------|--------------------------|
D|--------------------------------------------|--------------------------|
A|--------------------------------------------|--------------------------|
E|--------------------------------------------|--------------------------|

[Interlude]
e|-----------|--1~----1-----0h1p0------1p0-----|--------3------3-------3--|
B|-----------|--3~----3--3--------3--------3---|------3------3-------2----|
G|-----------|--2~----2-------------2--------2-|----3------3-------3------|
D|-----------|--0~----0------------------------|-/5------3-------2--------|
A|------0----|---------------------------------|--------------------------|
E|-----------|---------------------------------|--------------------------|

e|-----------|------1~---0h1p0------1p0------|--------3--------3--------3-|
B|--------2--|------3~---------3--------3----|------3--------3--------2---|
G|------2----|o-----2~-----------2--------2--|----3--------3--------3-----|
D|----2------|o--0--0~-----------------------|-/5--------3--------2-------|
A|--0--------|-------------------------------|----------------------------|
E|-----------|-------------------------------|----------------------------|

e|------------|
B|--------2---|
G|------2----o|
D|----2------o|
A|--0---------|
E|------------|

 Trading "fours" with keyboards
 play 2x                                           1/2
e|------------------------|----------------------|-----------|-----------|
B|--3--3--------3-----3---|----3-----------3-----|-----------|-----------|
G|--2--2--------2-----2---|----2-----------2-----|-2b---2~---|-2tr0------|
D|--0-----0--0-----0------|-0-----0--0--0-----0--|-----------|-------2---|
A|------------------------|----------------------|-----------|-------0---|
E|------------------------|----------------------|-----------|-----------|

[Solo]
                                                      choppy
e|-----17h18p17p15-------20bf~----17h18p17p15-------|-17------18-----17---|
B|---x-------------18p15----------------------18p15-|---------------------|
G|-x------------------------------------------------|---------------------|
D|--------------------------------------------------|---------------------|
A|--------------------------------------------------|---------------------|
E|--------------------------------------------------|---------------------|

e|----15--------17p15-----------|-15----------------------------------------|
B|----------18--------18p17h18--|----18-17-15-18-17-15-13-17-15-13----15-13-|
G|------------------------------|----------------------------------15-------|
D|------------------------------|-------------------------------------------|
A|------------------------------|-------------------------------------------|
E|------------------------------|-------------------------------------------|

                                                         keys 4bars
e|---------|--------------------------------------------|------------------|
B|---------|-13-----------------------------------------|------------------|
G|--15-14--|----15-14-12-15-14-12-10-14-12-10-9-12-10-9-|------------------|
D|---------|--------------------------------------------|-12~--------------|
A|---------|--------------------------------------------|------------------|
E|---------|--------------------------------------------|------------------|

[guitar solo]
e|----------------15h17h18p17p15--------x-------15----18p15p17p15---------|
B|-15-17-18-17-18----------------18-17-15-17-18----18-------------18------|
G|------------------------------------------------------------------------|
D|------------------------------------------------------------------------|
A|------------------------------------------------------------------------|
E|------------------------------------------------------------------------|

e|-18p15h17p15----18p15h17p15----18p15h17p15----------------------15-----|
B|-------------18-------------18-------------18-17-15h17h18-17h18--------|
G|-----------------------------------------------------------------------|
D|-----------------------------------------------------------------------|
A|-----------------------------------------------------------------------|
E|-----------------------------------------------------------------------|

                     1/2                                1/2
e|-------15---------------------------------------------12b--------------|
B|-17h18----18p17p15-17b-rb17p15-17-15p14p12-----------------------------|
G|-------------------------------------------14-12\10--------------------|
D|-----------------------------------------------------------------------|
A|-----------------------------------------------------------------------|
E|-----------------------------------------------------------------------|

e|-13--10--9--------------------------------------------------------------|
B|------------11--10------------------------------------------------------|
G|--------------------12--10--9-------------------------------------------|
D|-------------------------------12--11-----------------------------------|
A|---------------------------------------13--12--10-----------------------|
E|---------------------------------------------------13--12---------------|

keyboard solo

[Guitar solo]
e|-------------------------------------------------|----------------------|
B|-------------------------------------------------|-13-------13-15----13-|
G|-------------12-------12-14----12-14-15-12-14-15-|----14-15-------15----|
D|-15-12-14-15----14-15-------15-------------------|----------------------|
A|-------------------------------------------------|----------------------|
E|-------------------------------------------------|----------------------|

e|-----------------------------|-15-------15-17----15-17-18-15-17-18-20-17-|
B|--15-17-14-15-17-18-15-17-18-|----17-18-------18-------------------------|
G|-----------------------------|-------------------------------------------|
D|-----------------------------|-------------------------------------------|
A|-----------------------------|-------------------------------------------|
E|-----------------------------|-------------------------------------------|

                         1/2    2hold
e|--18-20--|-20bf--rb20--20b----20b------|--~~~~~------|----------~-------|
B|---------|-----------------------------|-------------|------------------|
G|---------|-----------------------------|-------------|------------------|
D|---------|-----------------------------|-------------|------------------|
A|---------|-----------------------------|-------------|------------------|
E|---------|-----------------------------|-------------|------------------|

e|-----------------|---------------|----------------|--------------------|
B|-----------------|---------------|----------------|--------------------|
G|-15~-----12bf----|--12~---9~-----|--15~----14~----|-12-w/bar----9~-----|
D|-----------------|---------------|----------------|--------------------|
A|-----------------|---------------|----------------|--------------------|
E|-----------------|---------------|----------------|--------------------|

e|--------------------|----------------|
B|--------------------|-15~----17~-\---|
G|-15~---17-w/bar-----|----------------|
D|--------------------|----------------|
A|--------------------|----------------|
E|--------------------|----------------|

e|-----------------------------|-------------------------|----------------|
B|-15bf------------------------|-------------------------|----------------|
G|-----------2-----1-----------|-------------------------|----2-----1-----|
D|--------------3-----2--------|-3-----2-----------------|-2-----3-----2--|
A|-------2---------------------|----5-----3--2--0--3--2--|---------------2|
E|-------0---------------0--0--|-------------------1--0--|---------------0|

e|---------------|-----------------------|-------------------------------|
B|---------------|-----------------------|-------------------------------|
G|---------------|------2-----1----------|-------------------------------|
D|---------------|---------3-----2-------|-3-----2-----------------------|
A|---------------|--2--------------------|----x-----3--2h3p2p0--3--2-----|
E|----x/-x-\-----|--0---------------0--0-|----------------------1--0-----|

e|---------------------|-------------|-----------------------------------|
B|---------------------|-------------|-----------------------------------|
G|------2-----1--------|-bass-fill---|-----2-----1-----------------------|
D|---------3-----2-----|-------------|--------3-----2--------------------|
A|--/3--------------2--|-------------|--2--------------------------------|
E|------------------0--|-------------|--0---------------0--0-------------|

e|-----------------------|--------------------|--------------------------|
B|-----------------------|--------------------|--------------------------|
G|-----------------------|-----2-----1--------|--------------------------|
D|-3--2------------------|--------3-----2-----|--------------------------|
A|-------3--3p2p0--3--2--|-/3--------------2--|--------------------------|
E|-----------------1--0--|-----------------0--|--------------------------|

e|----------------------|--------------------------|---------------------|
B|----------------------|--------------------------|---------------------|
G|----2-----1-----------|--------------------------|-----2-----1---------|
D|-------3-----2--------|-3-----2------------------|--------3-----2------|
A|-2-----------------5--|----5-----3--3p2p0--3--2--|-/3--------------2---|
E|-0--------------0-----|--------------------1--0--|-----------------0---|

e|----------|-------------------------------------|-----------------------|
B|----------|-------------------------------------|-----------------------|
G|---2------|-------------5-7-9-7p5---------------|---5-7-9-7p5-----------|
D|---2------|-------6-7-9-----------9-7-6-----6-7-|-9-----------9-7-6-----|
A|---0------|---7-8-----------------------7-8-----|-----------------------|
E|----------|-------------------------------------|-----------------------|

e|-----------|-------------------------------------|-----------------------|
B|-----------|-------------------------------------|-----------------------|
G|-----------|-----------5-7-9-7-5-----------------|---5-7-9-7p5-----------|
D|-----------|-----6-7-9-----------9-7-6-------6-7-|-9-----------9-7-6-----|
A|--8--7--8--|-7-8-----------------------8-7-8-----|-------------------8---|
E|-----------|-------------------------------------|-----------------------|

e|--------|-------------------------------------|-------------------------|
B|--------|-------------------------------------|-------------------------|
G|--------|-----------5-7-9-7-5-----------------|-------------------------|
D|--------|-----6-7-9-----------9-7-6-------6-7-|---5-7-9-7p5-------------|
A|--7--8--|-7-8-----------------------8-7-8-----|-9-----------9-7-6-------|
E|--------|-------------------------------------|-------------------8-7-8-|

e|-------------------------------------|---------------------------------|
B|-------------------------------------|---------------------------------|
G|-----------5-7-9-7-5-----------------|---5-7-9-7p5---------------------|
D|-----6-7-9-----------9-7-6-------6-7-|-9-----------9-7-6---------------|
A|-7-8-----------------------8-7-8-----|-------------------8-7-8---------|
E|-------------------------------------|---------------------------------|

                      1/2
e|------------------|------------------------|---------------------------|
B|------------------|------------------------|---------------------------|
G|------------------|-4b---4~----------------|---------------------------|
D|-/10--9~----------|------------------------|--7---6~-------------------|
A|----------6--7~---|------------7~----8~----|---------------------------|
E|------------------|------------------------|-----------7-----8~--------|

e|-----------------------|------/13p12p10---------------------------------|
B|-----------------------|----------------13-12-10\9----13-12-10\9--------|
G|-----------------------|---------------------------10------------12-10p9|
D|-----------------------|------------------------------------------------|
A|--8----7~--------7-----|--3---------------------------------------------|
E|------------4----5-----|--1---------------------------------------------|

e|------------------------------------------------------------------------|
B|---------------10p9-----------------------------------------------------|
G|--------------------12-10p9----10p9-------------------------------9-10--|
D|-12--10p9-------------------12------12-10h12p10-10\9~-----9-10-12-------|
A|-----------12-----------------------------------------------------------|
E|------------------------------------------------------------------------|

e|----------|------------8-------8-10----8-10-12-11-13/15bf--slow-release--|
B|-----9-10-|-12-9-10-12---10-12------12-----------------------------------|
G|--12------|--------------------------------------------------------------|
D|----------|--------------------------------------------------------------|
A|----------|--------------------------------------------------------------|
E|----------|--------------------------------------------------------------|

e|--------------|-----------------------|
B|--------------|-----------------------|
G|--click-------|-----4--2-----1--------|(descending piano & synth
D|----4---------|--3--------3-----2-----|to fade out
A|--------------|--------------------2--|
E|--------------|--------------------0--|



************************************

| p   Pull-off
| ~   Vibrato
| h   Hammer-on
| /   Slide up
| \   Slide down
| b   Bend
| x   Dead note
| tr  Trill

************************************
Suggest correction
comments
print report bad tab
11 comments total. Showing first comments.
+2 reply
~Rock~Guitarist 50 Nov 09, 2005 03:10 PM

Great tab!!! Everything is perfect!

0 reply
all_metallica 10 Jan 06, 2006 02:19 PM

i think this tab might be missing the end part at the start.. i havn't gone through it all but the first line.. if you listen he does 2 10th fret's on 2nd from bottom string.

0 reply
all_metallica 10 Jan 06, 2006 02:22 PM

wait. nm what i just said.. thought 2nd guitar was next line..

guest
Wanna post a correction for this tab? Suggest correction