Oops, an error
Loading. Please wait.

Overture 1622 tab

version 2
version 2

Whole song

Interactive

1,733 views 1 this week
no commentswrite comment
1 2 3 4 5
1 last vote to show rating
add to favorites
×
Save as Personal and add changes to this tab that will be seen only by you. Learn more ›
×
You can save this tab as Personal to edit and correct it or add notes. All changes will be seen only by you. Learn more »
launch autoscroll
font size
0
reset
how to read this tab
guitar tuner
edit
Autoscroll
slow
fast
+/-
esc
set tempo
stop
                           overture 1622
                           (first guitar)                              


                           Yngwie Malmsteen
Yngwie lead 1



                     |---3--|                                     
      E   E   E   E  S   S  S  S  S  Q        H        Q    Q     
D#||-----------------9h-10p-9--------------|---------------------|
A#||-------------12-----------12-11-12~----|-----------L---------|
F#||---------11----------------------------|---------------------|
C#||--9--12--------------------------------|---------------------|
G#||---------------------------------------|---------------------|
D#||---------------------------------------|---------------------|


                   |--3--|                                         
   E   E   E   E   S  S  S  S  S  Q        H        Q    E   S  S  
------------------10-12-10--------------|-------------------12-14-|
--------------14-----------14-12-14~----|-----------L-------------|
----------12----------------------------|-------------------------|
--11--14--------------------------------|-------------------------|
----------------------------------------|-------------------------|
----------------------------------------|-------------------------|


   H.               S  S     H.            E  S S     H.           E  E   
--15~--------------10-12-|--14~---------------7-9-|--10------------------|
-------------------------|------------------------|----------------------|
-------------------------|------------------------|----------------------|
-------------------------|------------------------|----------------------|
-------------------------|------------------------|----------------------|
-------------------------|------------------------|----------------------|


--------------------------------------------------------------------------------|
--------------------------------------------------------------------------------|
--------------------------------------------------------------------------------|
--------------------------------------------------------------------------------|
---------------------------------------------------------------------------9----|
-------------------------------------------------------------------7-9--10------|
---------------------------------------------------6-7-9-10-7-9-10--------------|


   |--3-|  |--3--|  |--3--|  |--3--|  |--3--|  |---3--|   |---3---|             
   S  S S  S  S  S  S  S  S  S  S  S  S  S  S  S  S   S   S   S   S  T   T   S  
-------------------------------15-14-12----------15p-14p-12h-14h-15-14h-15p-14-|
----------------11-12-14-12-11----------15-14-12-------------------------------|
--------9-11-12----------------------------------------------------------------|
--11-12------------------------------------------------------------------------|
-------------------------------------------------------------------------------|
-------------------------------------------------------------------------------|


                 |--3-|                                |---3--|               
  E   E   E   E  S  S S  S  S  Q        E   E   E   E  S   S  S  S  S  Q      
-----------------9-10-9--------------|-----------------9h-10p-9--------------|
-------------12---------12-11-12~----|-------------12-----------12-11-12~----|
---------11--------------------------|---------11----------------------------|
--9--12------------------------------|--9--12--------------------------------|
-------------------------------------|---------------------------------------|
-------------------------------------|---------------------------------------|


                   |--3--|               
   E   E   E   E   S  S  S  S  S  Q      
------------------10-12-10--------------|
--------------14-----------14-12-14~----|
----------12----------------------------|
--11--14--------------------------------|
----------------------------------------|
----------------------------------------|


                   |--3--|                                              
   E   E   E   E   S  S  S  S  S  E    S  S     H.            E   S  S  
------------------10-12-10------------12-14-|--15~------------L--10-12-|
--------------14-----------14-12-14~--------|--------------------------|
----------12--------------------------------|--------------------------|
--11--14------------------------------------|--------------------------|
--------------------------------------------|--------------------------|
--------------------------------------------|--------------------------|


   H.            E  S S     H.           E  S  S  
--14~------------L--7-9-|--10---------------9p-7-|
------------------------|----------------L-------|
------------------------|------------------------|
------------------------|------------------------|
------------------------|------------------------|
------------------------|------------------------|


  E   T  T  T  T  T  T  T  T  T  T  T  T  T  T  T  T  T  T  T  T  T  T  T  T  E 
--------------------------------------------------------------------------------
--6h--7p-6h-7p-6h-7p-6h-7p-6h-7p-6h-7p-6h-7p-6h-7p-6h-7p-6h-7p-6h-7p-6h-7p-6h-7-
--------------------------------------------------------------------------------
--------------------------------------------------------------------------------
--------------------------------------------------------------------------------
--------------------------------------------------------------------------------


                 |---3--|                                |---3--|               
  E   E   E   E  S   S  S  S  S  Q        E   E   E   E  S   S  S  S  S  Q      
-----------------9h-10p-9--------------|-----------------9h-10p-9--------------|
-------------12-----------12-11-12~----|-------------12-----------12-11-12~----|
---------11----------------------------|---------11----------------------------|
--9--12--------------------------------|--9--12--------------------------------|
---------------------------------------|---------------------------------------|
---------------------------------------|---------------------------------------|


                   |---3---|               
   E   E   E   E   S   S   S  S  S  Q      
------------------10h-12p-10--------------|
--------------14-------------14-12-14~----|
----------12------------------------------|
--11--14----------------------------------|
------------------------------------------|
------------------------------------------|


                   |---3---|                                                    
   E   E   E   E   S   S   S  S  S  Q        E   E   E   E   S   S  S S  Q      
------------------10h-12p-10--------------|-----------------14p-12-10-9-10~----|
--------------14-------------14-12-14~----|---------12--15---------------------|
----------12------------------------------|--7--11-----------------------------|
--11--14----------------------------------|------------------------------------|
------------------------------------------|------------------------------------|
------------------------------------------|------------------------------------|


   S  S S S Q      S  S S S Q        S  S S S S S S S S S S S S S S S  
--10p-9-7-6-7~----10p-9-7-6-7~----|--9p-7-6---------------------------|
----------------------------------|---------8-7-5---------------------|
----------------------------------|---------------7-6-----------------|
----------------------------------|-------------------9-8-5-----------|
----------------------------------|-------------------------9-7-5-----|
----------------------------------|-------------------------------9-7-|


  Q     Q     Q     Q        W                    H          Q.      E    
--------------------------|--------------------|-------------------------|
--------------------------|--------------------|-------------------------|
--------------------------|--------------------|-------------------------|
--------------------------|--9~----------------|--9~--------12~------9~--|
--------------------------|--------------------|-------------------------|
--6~----7~----3~----2~----|--------------------|-------------------------|


   W                     H          Q.       E    
---------------------|---------------------------|
---------------------|---------------------------|
---------------------|---------------------------|
--11~----------------|--11~--------14~------11~--|
---------------------|---------------------------|
---------------------|---------------------------|


   Q      S  S  S  S  Q      S  S  S  S     H          H          
----------------------------------------|------------------------|
----------------------------------------|------------------------|
----------------------------------------|-------------16b--------|
--12~----12-14-16-12-14~----14-16-17-14-|--16~-------------------|
----------------------------------------|------------------------|
----------------------------------------|------------------------|


   H         H           E  S E   S S S S S S S S S S S  
----------------------|---------------------------------|
----------------------|---------------------------------|
--16~-----------------|---------------------------------|
----------------------|---------------------------2-4-5-|
----------------------|---------------------2-4-5-------|
----------------------|--2--x-2~--2-0-2-3-6-------------|


  E  S E   S S S S S S S S S S S    E  S E   S S S S S S S S S S S  
---------------------------------|---------------------------------|
---------------------------------|---------------------------------|
---------------------------------|---------------------------------|
---------------------------2-4-5-|---------------------------2-4-5-|
---------------------2-4-5-------|---------------------2-4-5-------|
--2--x-2~--2-0-2-3-6-------------|--2--x-2~--2-0-2-3-6-------------|


  S S S S S S S S S S S S S S S S    E  S E   S S S S S S S S S S S  
----------------------------------|---------------------------------|
--8-7-5---------------------------|---------------------------------|
--------7-6-4---------------------|---------------------------------|
--------------8-5-4---------------|---------------------------2-4-5-|
--------------------7-5-4---------|---------------------2-4-5-------|
--------------------------7-6-3-2-|--2--x-2~--2-0-2-3-6-------------|


  E  S E   S S S S S S S S S S S    E  S E   S S S S S S S S S S S  
---------------------------------|---------------------------------|
---------------------------------|---------------------------------|
---------------------------------|---------------------------------|
---------------------------2-4-5-|---------------------------2-4-5-|
---------------------2-4-5-------|---------------------2-4-5-------|
--2--x-2~--2-0-2-3-6-------------|--2--x-2~--2-0-2-3-6-------------|


                  |--3--|  |--3--|                     |---3---|               
  S S S S S S S S E  E  E  E  E  E     E   E   E   E   S   S   S  S  S  Q      
------------------------------------|-----------------------------------------|
--8-7-5-----------------------------|-------------12--14h-15p-14-12----12~----|
--------7-6-4-----------------------|---------11--------------------15--------|
--------------8-5-4-----------------|--9--12----------------------------------|
---------------------7--5--4--------|-----------------------------------------|
------------------------------7--6--|-----------------------------------------|


                  |---3---|               
  E   E   E   E   S   S   S  S  S  Q      
-----------------------------------------|
-------------12--14h-15p-14-12----12~----|
---------11--------------------15--------|
--9--12----------------------------------|
-----------------------------------------|
-----------------------------------------|


                   |---3---|               
   E   E   E   E   S   S   S  S  S  Q      
------------------------------------------|
--------------14--15h-17p-15-14----14~----|
----------12--------------------16--------|
--11--14----------------------------------|
------------------------------------------|
------------------------------------------|


                   |---3---|                                              
   E   E   E   E   S   S   S  S  S  E    S  S     H.            E   S  S  
-------------------------------------------14-|--15~------------L--------|
--------------14--15h-17p-15-14----14~--17----|--------------------15-17-|
----------12--------------------16------------|--------------------------|
--11--14--------------------------------------|--------------------------|
----------------------------------------------|--------------------------|
----------------------------------------------|--------------------------|


   H.            E   S  S     H.            E   S   S  
--14~------------L--------|---------------------------|
--------------------12-14-|--15~------------L--14p-12-|
--------------------------|---------------------------|
--------------------------|---------------------------|
--------------------------|---------------------------|
--------------------------|---------------------------|


   E    T   T   T   T   T   T   T   T   T   T   T   T   T   T   T   T   T   T   
--------------------------------------------------------------------------------
--11h--12p-11h-12p-11h-12p-11h-12p-11h-12p-11h-12p-11h-12p-11h-12p-11h-12p-11h-1
--------------------------------------------------------------------------------
--------------------------------------------------------------------------------
--------------------------------------------------------------------------------
--------------------------------------------------------------------------------


                  |---3---|               
  E   E   E   E   S   S   S  S  S  Q      
-----------------------------------------|
-------------12--14h-15p-14-12----12~----|
---------11--------------------15--------|
--9--12----------------------------------|
-----------------------------------------|
-----------------------------------------|


                  |---3---|               
  E   E   E   E   S   S   S  S  S  Q      
-----------------------------------------|
-------------12--14h-15p-14-12----12~----|
---------11--------------------15--------|
--9--12----------------------------------|
-----------------------------------------|
-----------------------------------------|


                   |---3---|               
   E   E   E   E   S   S   S  S  S  Q      
------------------------------------------|
--------------14--15h-17p-15-14----14~----|
----------12--------------------16--------|
--11--14----------------------------------|
------------------------------------------|
------------------------------------------|


                   |---3---|                                                    
   E   E   E   E   S   S   S  S  S  Q        E   E   E   E   S   S  S S  Q      
------------------------------------------|-----------------14p-12-10-9-10~----|
--------------14--15h-17p-15-14----14~----|---------12--15---------------------|
----------12--------------------16--------|--7--11-----------------------------|
--11--14----------------------------------|------------------------------------|
------------------------------------------|------------------------------------|
------------------------------------------|------------------------------------|


   S  S S S Q      S  S S S Q        S  S S S S S S S S S S S S S S S  
--10p-9-7-6-7~----10p-9-7-6-7~----|--9p-7-6---------------------------|
----------------------------------|---------8-7-5---------------------|
----------------------------------|---------------7-6-----------------|
----------------------------------|-------------------9-8-5-----------|
----------------------------------|-------------------------9-7-5-----|
----------------------------------|-------------------------------9-7-|


  Q     Q     Q     Q        W                    H          Q.      E    
--------------------------|--------------------|-------------------------|
--------------------------|--------------------|-------------------------|
--------------------------|--------------------|-------------------------|
--------------------------|--9~----------------|--9~--------12~------9~--|
--------------------------|--------------------|-------------------------|
--6~----7~----3~----5~----|--------------------|-------------------------|


   W                     H          Q.       E    
---------------------|---------------------------|
---------------------|---------------------------|
---------------------|---------------------------|
--11~----------------|--11~--------14~------11~--|
---------------------|---------------------------|
---------------------|---------------------------|


   Q      S  S  S  S  Q      S  S  S  S     H          H          
----------------------------------------|------------------------|
----------------------------------------|------------------------|
----------------------------------------|-------------16b--------|
--12~----12-14-16-12-14~----14-16-17-14-|--16~-------------------|
----------------------------------------|------------------------|
----------------------------------------|------------------------|


   H         Q.      E        H.            S   E.    
--------------------18br--|---L----------------------|
--------------------------|----------------20p-19~---|
--16~---------------------|--------------------------|
--------------------------|--------------------------|
--------------------------|--------------------------|
--------------------------|--------------------------|


   E    H         Q     E     
-----------------------18br--|
---L~--19~--------L----------|
-----------------------------|
-----------------------------|
-----------------------------|
-----------------------------|


                      |--3--|  |--3--|  |--3--|  |--3--|  
  E   E   S  S  S  S  S  S  S  S  S  S  S  S  S  S  S  S  
--L--15--18-19-18-15-19-15-18-19-18-21-15-18-19-18-15-21-|
---------------------------------------------------------|
---------------------------------------------------------|
---------------------------------------------------------|
---------------------------------------------------------|
---------------------------------------------------------|


   |--3--|  |--3--|  |--3--|  |--3--|  |--3--|  |--3--|                         
   S  S  S  S  S  S  S  S  S  S  S  S  S  S  S  S  S  S  T   T   T   T   T   T  
--15-18-19-18-15-19-15-18-19-18-15-21-15-18-19-18-15-21-18h-19h-21p-19p-18p-15h-
--------------------------------------------------------------------------------
--------------------------------------------------------------------------------
--------------------------------------------------------------------------------
--------------------------------------------------------------------------------
--------------------------------------------------------------------------------


                                                                        |--3--| 
   T   T   T   T   T   T  T   T   T   T   T   T   T   T  T   T   S  S   S  S  S 
--21p-19p-18h-21p-19p-18-------------------------------------------21S----------
-------------------------20p-19p-17h-20p-19p-17h-19h-20-------------------------
--------------------------------------------------------21p-19p-18-----15-16-18-
--------------------------------------------------------------------------------
--------------------------------------------------------------------------------
--------------------------------------------------------------------------------


   |--3--|  |--3--|  |--3--|  |--3--|  |--3--|  |--3--|  |--3--|  |--3--|  
   S  S  S  S  S  S  S  S  S  S  S  S  S  S  S  S  S  S  S  S  S  S  S  S  
--------------------------------------------------------------------------|
--------15-17-19-17-15-19-17-15----------------15-17-19-20-19-17-15-19-17-|
--16-18-------------------------18-16-15-16-18----------------------------|
--------------------------------------------------------------------------|
--------------------------------------------------------------------------|
--------------------------------------------------------------------------|


   |--3--|  |--3--|  |--3--|  |--3--|  |--3-|  |--3-|  |--3-|  |--3-|  
   S  S  S  S  S  S  S  S  S  S  S  S  S S  S  S S  S  S S  S  S  S S  
----------------------------------------------------------------------|
--15-14-17-15-14-12-15-14-12-11-14-12-11-8-12-11-8-12-11-8-11-12-11-8-|
----------------------------------------------------------------------|
----------------------------------------------------------------------|
----------------------------------------------------------------------|
----------------------------------------------------------------------|


   |--3--|  |--3--|  |--3--|  |--3--|                                           
   S  S  S  S  S  S  S  S  S  S  S  S  T   T   T  T   T   T  T   T   T  T   T   
--------------------------------------------------------------------------------
--------------------------14-15-17-19-20p-19p-17------------20p-19p-17----------
--11-11-12-14-16-12-14-16------------------------19p-18p-16------------19p-18p-1
--------------------------------------------------------------------------------
--------------------------------------------------------------------------------
--------------------------------------------------------------------------------


   T   T   T  T   T   T  T   T   T  T   T   S  H         S.  
------------------------------------------------------------|
--20p-19p-17------------------------------------------------|
-------------19p-18p-16-------------------------------------|
------------------------20p-17p-16--------------------------|
-----------------------------------19p-17p-14-13~--------L--|
------------------------------------------------------------|


  E   Q.         S  S  Q      S  S  
-----------------------------14-15-|
-----15pbr~---------L-14~----------|
-----------------------------------|
-----------------------------------|
-----------------------------------|
-----------------------------------|


   S  S  S  S  S  S  S  S  S  S  S  S  S  S  S  S  
--12-15----14----15----15----15-14-15-12-15----15-|
--------15----14----12----11----------------15----|
--------------------------------------------------|
--------------------------------------------------|
--------------------------------------------------|
--------------------------------------------------|


   S  S  S  S  S  S  S  S  S  S  S  S  S  S  S  S  
-----15----15----15-14-15-12-15----15----15----15-|
--14----12----11----------------15----14----12----|
--------------------------------------------------|
--------------------------------------------------|
--------------------------------------------------|
--------------------------------------------------|


   T   T   T   T   T   T   T   T   T   T   T   T   T   T   T T  T   T   T  T   T
--------------------------------------------------------------------------12h-14
--11h-12p-11h-12p-11h-12p-11h-12p-11h-12p-11h-12p-11h-12p-11---12h-14h-15-------
--------------------------------------------------------------------------------
--------------------------------------------------------------------------------
--------------------------------------------------------------------------------
--------------------------------------------------------------------------------


  S  T   T   T   T  T   T   T   T  E    E   E    E   E    S   
--L-14h-15p-14p-12----------------15S--21--21S--15--15S--21S-|
-------------------15p-14p-12p-11----------------------------|
-------------------------------------------------------------|
-------------------------------------------------------------|
-------------------------------------------------------------|
-------------------------------------------------------------|


                             |---3---|   
  S  E    E   E    E   E.    E   E   E   
--L-21S--15--15S--14--14~---12--14--15--|
----------------------------------------|
----------------------------------------|
----------------------------------------|
----------------------------------------|
----------------------------------------|


   |--3--|  |--3--|  |--3--|  |--3--|  |--3--|  |--3--|  |--3--|  |--3--|   
   S  S  S  S  S  S  S  S  S  S  S  S  S  S  S  S  S  S  S  S  S  S  S  S   
--18-12-14-15-14-12-18-12-14-15-14-12-18-12-14-15-14-12-18-12-14-15-14-12S-|
---------------------------------------------------------------------------|
---------------------------------------------------------------------------|
---------------------------------------------------------------------------|
---------------------------------------------------------------------------|
---------------------------------------------------------------------------|


                    |---3---|                                     
   E    E   E   E   S   S   S  S  S  Q        H        Q    Q     
--19~-----------L--------------------------|---------------------|
---------------12--14h-15p-14-12----12~----|-----------L---------|
-----------11--------------------15--------|---------------------|
---9~--12----------------------------------|---------------------|
-------------------------------------------|---------------------|
-------------------------------------------|---------------------|


                   |---3---|                                         
   E   E   E   E   S   S   S  S  S  Q        H        Q    E   S  S  
------------------------------------------|----------------------14-|
--------------14--15h-17p-15-14----14~----|-----------L-------17----|
----------12--------------------16--------|-------------------------|
--11--14----------------------------------|-------------------------|
------------------------------------------|-------------------------|
------------------------------------------|-------------------------|


   H.            E   S  S     H.            E   S  S     H.            E  E   
--15~------------L--------|--14~------------L--------|-----------------------|
--------------------15-17-|--------------------12-14-|--15~------------L-----|
--------------------------|--------------------------|-----------------------|
--------------------------|--------------------------|-----------------------|
--------------------------|--------------------------|-----------------------|
--------------------------|--------------------------|-----------------------|


  pm------------------------------------------------                 -----------
  |--------------------------3-------------------------|  |-3-|  |-3-|          
  S                                                  S S  S S S  S S S          
--------------------------------------------------------------------------------
--------------------------------------------------------------------------------
--------------------------------------------------------------------------------
--------------------------------------------------------------------------------
-------------------------------------------------------------------7-9----------
--6--------------------------------------------------7-9-10-7-9-10--------------


   |--3-|  |--3--|  |--3--|  |--3--|  |--3--|  |--3--|  |--3--|  |--3--|   
   S  S S  S  S  S  S  S  S  S  S  S  S  S  S  S  S  S  S  S  S  S  S  S   
-------------------------------15-14-12-15-14----------15-14----------14S-|
----------------11-12-14-12-11----------------15-14-12-------15----15-----|
--------9-11-12-------------------------------------------------16--------|
--11-12-------------------------------------------------------------------|
--------------------------------------------------------------------------|
--------------------------------------------------------------------------|


   E    E  H.             
--19S~------------------||
------------------------||
------------------------||
------------------------||
------------------------||
------------------------||




Duration Legend
---------------
W - whole
H - half
Q - quarter
E - 8th
S - 16th
T - 32nd
X - 64th
. - note dotted
|-n-|  - n-tuplets


Tablature Legend
----------------
L - tied note
x - dead note
g - grace note
(n) - ghost note
> - accentuded note
NH - natural harmonic
AH - artificial harmonic
TH - tapped harmonic
SH - semi harmonic
PH - pitch harmonic
h - hammer on
p - pull off
b - bend
br - bendRelease
pb - preBend
pbr - preBendRelease
brb - bendReleaseBend
\n/ - tremolo bar dip
\n - tremolo bar dive
-/n - tremolo bar Release up
/n\ - tremolo bar inverted dip
/n - tremolo bar return
-\n - tremolo bar Release down
S - shift slide
s - legato slide
/ -  slide into from below or out of upwards
\ -  slide into from above or out of downwards
~ - vibrato
W - wide vibrato
tr - trill
TP - tremolo picking
T - tapping
S - slap
P - pop
< - fade in
^ - brush up
v - brush down

            
            
Suggest correction
Creating personal tab
Creating personal tab
You can edit any tab online and save it as your Personal.

You can edit, replace or remove any tab part or add personal notes – all changes will be seen only by you.

Personal tabs can be accessed anytime from any device, even offline.
Learn more »
Give kudos to tab author, rate the tab!
1 2 3 4 5
comments
print report bad tab
guest
You may want to rate the tab now too:
select rating
Wanna post a correction for this tab? Suggest correction