Oops, an error
Loading. Please wait.

The Summer chords

version 1
version 1

Whole song

1,857 views 3 this week
1 commentread comment
1 2 3 4 5
2 more votes to show rating
add to favorites
×
Save as Personal and add changes to this tab that will be seen only by you. Learn more ›
×
You can save this tab as Personal to edit and correct it or add notes. All changes will be seen only by you. Learn more »
launch autoscroll
font size
0
reset
transpose
0
reset
display chords
guitar tuner
edit
Autoscroll
slow
fast
+/-
esc
set tempo
stop
Author
Strumming
There is no strumming pattern for this song yet. and get +5 IQ
Yo La Tengo - The Summer

F# C#

F# C#

F#          C#
On darkened streets tonight
F#      C#
I see a simple time
F#        C#
I see the warning light
G#                    B
When the summer comes undone

F#       C#
No sorry closing eyes
F#         C#
No cutting down to size
F#       C#
No other thoughts arise
G#                    B
When the summer comes undone


e---------------------------|
B-2-2-2-2-2-2-2-2-2-2-2-----|
G-6-4-3-3h4-3-1-1h3-1-------|
D---------------------4-----|
F# C#
F# C#
F# C#

e------------------------------|
B-2-2-2--2-2-2--2-2-2-2-(2)-2--|
G-4-3-1--4-3-1--1h3-1-------1--|
D---------------------4-(4)----|
G# B

F#          C#
On darkened streets tonight
F#       C#
I make a wrong turn right
F#          C#
Take in the lonely site
G#                    B
When the summer comes undone

F# C#
F# C#
F# C#
G# B

F#      C#
I won't wait
F#      C#
I won't have to
F#     C#            G#    B
I just waste my time alone

F# C#
F# C#
F# C#
G# B

e-6-6-6---------|
B-7-----7-------|
G-6-------8--p6-|
D---------------|
F#                    C#
G#                    B
'Til the summer comes undone

e-6-6-6---------|
B-7-----7-------|
G-6-------8--p6-|
D---------------|
F#                    C#
G#                    B
'Til the summer comes undone

F#                    C#
G#                    B
'Til the summer comes undone

F# C#
F# C#
F# C#
G# B

            
            
Suggest correction
Creating personal tab
Creating personal tab
You can edit any tab online and save it as your Personal.

You can edit, replace or remove any tab part or add personal notes – all changes will be seen only by you.

Personal tabs can be accessed anytime from any device, even offline.
Learn more »
Give kudos to tab author, rate the tab!
1 2 3 4 5
comments
print report bad tab
1 comment total.
0 reply
mfaller 103 Mar 02, 2012 05:42 PM

The moderators removed this for some reason...

The main riff throughout the song can be played like this:

e------------------------------
B-2-2-2-2-2-2-2-2-2-2-2-------- x3
G-6-4-3-3h4-3-1-1h3-1----------
D---------------------4--------

e------------------------------
B-2-2-2--2-2-2--2-2-2-2-(2)-2--
G-4-3-1--4-3-1--1h3-1-------1--
D---------------------4-(4)----

guest
You may want to rate the tab now too:
select rating
Wanna post a correction for this tab? Suggest correction