Oops, an error
Loading. Please wait.

Sciopero Tema Tab

19 views 1 this week
no commentswrite comment
1 2 3 4 5
3 more votes to show rating
add to favorites
launch autoscroll
font size
0
reset
how to read this tab
guitar tuner
Autoscroll
slow
fast
+/-
esc
set tempo
stop
Help us to improve Ultimate-Guitar.com Take our survey!
×
Author
Difficulty
novice
[Intro]

e|-2-------2---------3-3-3-|-3-------3-----------3---|
B|----3------3-------------|----3--------------------|
G|-------0-----0-----------|-------0-----------------|
D|-------------------------|-------------------------|
A|-2-----------------------|-3-----------------------|
E|-------------------------|-------------------------|

e|-7-------7---------5-----|-8-------3-------3-------|
B|----7------7---------5---|---8--------3------------|
G|-------0-----0---------0-|-----0---------0---------|
D|-------------------------|-------------------------|
A|-7-----------------5-----|-------------------------|
E|-------------------------|-------------------------|

e|-2-------2---------2-3h--|-3-------3-----------3---|
B|----3------3-------------|----3--------------------|
G|-------0-----0-----------|-------0-----------------|
D|-------------------------|-------------------------|
A|-2-----------------------|-3-----------------------|
E|-------------------------|-------------------------|

e|-7-------7---------5-----|-10------3-------3-------|
B|----7------7---------5---|---10-------3------------|
G|-------0-----0---------0-|-----10--------0---------|
D|-------------------------|-------------------------|
A|-7-----------------5-----|-------------------------|
E|-------------------------|-------------------------|

************************************

| h   Hammer-on

************************************
Suggest correction
Give kudos to tab author, rate the tab!
1 2 3 4 5
comments
print report bad tab
guest
You may want to rate the tab now too:
select rating
Wanna post a correction for this tab? Suggest correction