Oops, an error
Loading. Please wait.

Insanity intro tab

version 1
version 1

Intro

Whole song

Interactive

112 views 1 this week
no commentswrite comment
1 2 3 4 5
3 more votes to show rating
add to favorites
×
Save as Personal and add changes to this tab that will be seen only by you. Learn more ›
×
You can save this tab as Personal to edit and correct it or add notes. All changes will be seen only by you. Learn more »
launch autoscroll
font size
0
reset
how to read this tab
guitar tuner
edit
Autoscroll
slow
fast
+/-
esc
set tempo
stop
Author
e|---7-x-7---8-x-8---5-x-5-----x-------x-------x-----3-x-3---2-x-2-|
B|---8-x-8---8-x-8---5-x-5---5-x-5---5-x-5---5-x-5---5-x-5---4-x-4-|
G|---9-x-9---9-x-9---6-x-6---4-x-4---5-x-5---4-x-4---3-x-3---2-x-2-|
D|-----x-------x-------x-----5-x-5---5-x-5---5-x-5-----x-------x---|
A|-----x-------x---0---x-------x-------x-------x-------x-------x---|
E|-0---x---0---x-------x---0---x---0---x---0---x---0---x---0---x---|


The 'x' means a slap on your strings. You can hear it in the song.
This tab is used for the intro and the verses. All other parts
are played with normal chords.

I prefer to play some parts like that:


   Am                 Em               C                 B

e|-----x-----------|-----x-----------|-----x-----------|-----x-----------|
B|---1-x-1---1-----|---0-x-0---0---0-|---1-x-1---1---1-|---4-x-4-------4-|
G|---2-x-2---2-----|---0-x-0---0---0-|---0-x-0---0---0-|---4-x-4-------4-|
D|---2-x-2---2-----|---2-x-2---2---2-|---2-x-2---2---2-|---4-x-4-------4-|
A|-0---x---0-------|-----x-------2---|-3---x---3-------|-2---x---2-0-3---|
E|-----x-------3-2-|-0---x---0-------|-----x-------3---|-----x-----------|


But that is optional. Its not played in the original track.

So have fun dudes!



            
            
Suggest correction
Creating personal tab
Creating personal tab
You can edit any tab online and save it as your Personal.

You can edit, replace or remove any tab part or add personal notes – all changes will be seen only by you.

Personal tabs can be accessed anytime from any device, even offline.
Learn more »
Give kudos to tab author, rate the tab!
1 2 3 4 5
comments
print report bad tab
guest
You may want to rate the tab now too:
select rating
Wanna post a correction for this tab? Suggest correction