Oops, an error
Loading. Please wait.

Is It True tab

version 2
version 2

Whole song

by Yohanna
2,865 views 1 this week
no commentswrite comment
1 2 3 4 5
3 more votes to show rating
add to favorites
×
Save as Personal and add changes to this tab that will be seen only by you. Learn more ›
×
You can save this tab as Personal to edit and correct it or add notes. All changes will be seen only by you. Learn more »
launch autoscroll
font size
0
reset
how to read this tab
guitar tuner
edit
Autoscroll
slow
fast
+/-
esc
set tempo
stop
Tabbed by:Arian.J/COOL-@ Date:11/6/2009
Artist:Yohanna Guorun Jonsdattir
Song:Is it true
Iceland's entry in the Eurovision Song Contest 2009.

Official website: http://www.myspace.com/yohannamusic

Standard tuning
Capo on first fret!

INTRO:
  Am
e|-------------------------------------------|
B|---------1---------------------1-----------|
G|-----2-----2---2-----------2-----2---2-----|
D|---2---2-----2---2-------2---2-----2---2---|
A|-0---------------------0-------------------|
E|-------------------------------------------|

VERSES:

  Am                                           F
e|-----------------------------------------------------------------------------------|
B|---------1---------------------1----------------------1------------------1---------|
G|-----2-----2---2-----------2-----2---2------------2-----2---2--------2-----2---2---|
D|---2---2-----2---2-------2---2-----2---2--------3---3-----3---3----3---3-----3---3-|
A|-0---------------------0------------------0----------------------------------------|
E|----------------------------------------------1------------------1-----------------|


  Am                                           F
e|-----------------------------------------------------------------------------------|
B|---------1---------------------1----------------------1------------------1---------|
G|-----2-----2---2-----------2-----2---2------------2-----2---2--------2-----2---2---|
D|---2---2-----2---2-------2---2-----2---2--------3---3-----3---3----3---3-----3---3-|
A|-0---------------------0------------------0----------------------------------------|
E|----------------------------------------------1------------------1-----------------|

PRE-CHORUS
   G            F            G             F      E
e|---------1---------------------------1----1-11----0-------|
B|-----------------------1------------------1-11----0-------|
G|-----0-------------2-------------0--------2-22----1-------|
D|---0---0---------3---3---------0---0------3-33----2-------|
A|------------------------------------------3-33----2-------|
E|-3-------------1-------------3------------1-11----x-------|

VERSE1: (strum the chords or play it while using finger placking)
    Am
You say you really know me, you’re not afraid to show me
       F
What is in your eyes.
   Am
So tell me about the rumors, are they only rumors?
        F
Are they only lies?

PRE-CHORUS (strum the chords or play it while using finger placking)
    G                   F                 G                   F E
       Falling out of a perfect dream,      coming out of the blu---e

CHORUS: (strum the chords)
      Am          F           C         G
Is it true? Is it over? Did I throw it away?
       Am           F                       C              G
Was it you? Did you  tell me you would never leave me this way?

VERSE2: (strum the chords or play it while using finger placking)
Am
If you really knew me, you couldn’t do this to me
         F
You would be my friend
   Am
If one of us is lying, there’s no use in trying
       F
No need to pretend

PRE-CHORUS: (strum the chords or play it while using finger placking)
 G                   F                 G                   F E
       Falling out of a perfect dream,      coming out of the blu---e

CHORUS (strum the chords)
      Am          F           C           G
Is it true? Is it over? Did I throw it away?
      Am            F                        C              G
Was it  you? Did you  tell me you would never leave me this way?

CHORUS (modulation/strum the chords)
      Bm         G       D            A
Is it true? Is it over? Did I throw it away?
      Bm            G                  D                  A
Was it you? Did you tell me you would never leave me this way?
      Bm         G            D                     A
Is it real? Did I dream it? Will I wake  from this pain
      Bm         G           D                A
Is it true? Is it over? Baby did I throw it away?
      Bm
Is it true?

Chords used in this song:
Bm = x24432  Asus2 = x02200
G = 320033   D = xx0232
A = x02220   F = 133211
Am = 002210  E = 022100
      C = 032010

Note:Listen to the actual song to get the strumming right.This is my first tab (so go
on me if there are mistakes) and my fave song, soooo if you like it, feel free to write a
and add your personal opinion about it.I use these chords because it is suitable to the 
of my voice (deep male voice)sooo if you are a guy with a deep voice, that means your
the right place.Anyway soooo rate it if you like it, and most of all ENJOY IT!! xD C' ya 
Fan's!!!

            
            
Suggest correction
Creating personal tab
Creating personal tab
You can edit any tab online and save it as your Personal.

You can edit, replace or remove any tab part or add personal notes – all changes will be seen only by you.

Personal tabs can be accessed anytime from any device, even offline.
Learn more »
Give kudos to tab author, rate the tab!
1 2 3 4 5
comments
print report bad tab
guest
You may want to rate the tab now too:
select rating
Wanna post a correction for this tab? Suggest correction