Oops, an error
Loading. Please wait.

Innocence tab

by YOHIO
639 views 1 this week
no commentswrite comment
1 2 3 4 5
3 more votes to show rating
add to favorites
×
Save as Personal and add changes to this tab that will be seen only by you. Learn more ›
×
You can save this tab as Personal to edit and correct it or add notes. All changes will be seen only by you. Learn more »
launch autoscroll
font size
0
reset
how to read this tab
guitar tuner
edit
Autoscroll
slow
fast
+/-
esc
set tempo
stop
Yohio - INNOCENCE
From the record BREAK the BORDER.

Tabbed with a laptop speaker so there could be room for errors.
Please send any corrections to zzott@live.se.



                        Intro

let ring
C#|---------------------------------------------------------|
G#|------------6---5----------------------------------------|
E-|------7-------7----7-------------------------------------|
B |----7----7-----------------7---5---------7---5---7-------|x2
F#|--5---------------------5------------5-------------------|
B-|---------------------------------------------------------|

C#|---------------------|
G#|---------------------|
E-|---------------------|
B |---------------------|
F#|--0-0-0-0---0-0-0-0--|
B-|--0-0-0-0---0-0-0-0--|
     x x x x   x x x



                Mean riff

C#|------------------------------------------------------------------|
G#|------------------------------------------------------------------|
E-|------------------------------------------------------------------|
B |----3p0-2p0---------3p0-2p0-------3p0-2p0----------3p0-2p0--------|
F#|------------3p0--------------3------------3p0---------------3-----|
B-|--0-------------1p0--------------0---------------1p0-----------0--|


C#|------------------------------------------------------------------|
G#|------------------------------------------------------------------|
E-|------------------------------------------------------------------|
B |----3p0-2p0---------3p0-2p0--------3p0-2p0----0-2-3-5-7-5---------|
F#|------------3p0-------------3p0-----------------------------------|
B-|--0-------------1p0--------------0----------0-------------0-------|


C#|------------------------------------------------------------------|
G#|------------------------------------------------------------------|
E-|------------------------------------------------------------------|
B |----3p0-2p0---------3p0-2p0-----3p0-2p0---------3p0-2p0-----------|
F#|------------3p0-------------3-----------3p0--------------3--------|
B-|--0-------------1p0------------0------------1p0------------0------|

C#|------------------------------------------------------------------|
G#|--------------------------------------------------------11~-------|
E-|--------------------------------------------------------14~-------|
B |----3p0-2p0-----3p0-2p0-------------------------------------------|
F#|------------3----------3p0------------------0-------0-------------|
B-|--0-----------0-------------3-3-3-3-2-2-2-2-0-0-0-0-0-------------|
                               x x x x x x x x   x x x
                                                

                        Verse
 

Can't see, though my sight is clear...
C#|---------------------------------------------------------------|
G#|---------------------------------------------------------------|
E-|---------------------------------------------------------------|
B |---------------------------------------------------------------|
F#|------------------------- -----------6-5-3-6-5-----------------|
B-|--1p0-0-1p0-0-0-0-0-1p0--1p0-0-1p0-0---------------------------|
         x     x x x x          x     x

C#|---------------------------------------------------------------|
G#|---------------------------------------------------------------|
E-|---------------------------------------------------------------|
B |--------------------3-1-0-1-0----------------------------------|
F#|------------------------------------------------6-5-3-6-5------|
B-|--1p0-0-1p0-0-0-0-0-----------1p0-0-1p0-0-0-0-0----------------|
         x     x x x x               x     x x x x       

C#|---------------------------------------------------------------|
G#|---------------------------------------------------------------|
E-|---------------------------------------------------------------|
B |---------------------------------------------------------------|
F#|------------------------- -----------6-5-3-6-5-----------------|
B-|--1p0-0-1p0-0-0-0-0-1p0--1p0-0-1p0-0---------------------------|
         x     x x x x          x     x           

C#|---------------------------------------------------------------|
G#|---------------------------------------------------------------|
E-|---------------------------------------------------------------|
B |------------3-1-0-1-0------------------------------------------|
F#|---------------------------------------6-5-3-6-5---------------|
B-|--1p0-0-1p0-----------1p0--1p0-0-1p0-0-------------------------|
         x               x        x     x



                Breakdown



C#|--------------------------------|
G#|--------------------------------|
E-|--------------------------------|
B |--------------------------------|
F#|--0-0--0-0-0--00-0-0------------|
B-|--1-1--1-1-1--11-1-1---111-111--|
       x  x x x  xx   x   xxx xxx

C#|-------------------------------------------|
G#|-------------------------------------------|
E-|-------------------------------------------|
B |-------------------------------------------|
F#|--0-0--0-0-0--00-0-0---555222-0-0--444111--|
B-|--1-1--1-1-1--11-1-1----------0-0----------|
       x  x x x  xx   x   xxxxxx x x  xxxxxx

C#|--------------------------------|
G#|--------------------------------|
E-|--------------------------------|
B |--------------------------------|
F#|--0-0--0-0-0--00-0-0---0-0-0----|
B-|--1-1--1-1-1--11-1-1---1-1-1----|
       x  x x x  xx   x   x x x

C#|--------------------------------|
G#|--------------------------------|
E-|--------------------------------|
B |--------------------------------|
F#|--0-0--0-0-0--00-0-0-5-5-7-8-8--|
B-|--1-1--1-1-1--11-1-1-5-5-7-8-8--|
       x  x x x  xx   x x x x x x




                        Chorus


Rythm guitar
C#|---------------------------------------------------------------|
G#|---------------------------------------------------------------|
E-|---------------------------------------------------------------|
B |---------------------------------------------------------------|x2
F#|--0-0-0-0~-------0-0-0-0~----------8-8-8-8~-------8/7-7-7-7-7--|
B-|--0-0-0-0~-------0-0-0-0~----------8-8-8-8~-------8/7-7-7-7-7--|


Lead guitar (Let ring)                  
C#|---------------------------------------------------------------|
G#|--------6------5-----6-----------------------------------------|
E-|------7---7------7-----7---------------------------------------|
B |----7-------7------7-----7-------7---5---------7---5---7-------|
F#|--5--------------------------5------------5--------------------|
B-|---------------------------------------------------------------|

C#|---------------5-----------------------------------------------|
G#|--------6--------6---6-----------------------------------------|
E-|------7---7--------7---7---------------------------------------|
B |----7-------7------------7------7---5-------7---5---7----------|
F#|--5--------------------------5----------7----------------------|
B-|---------------------------------------------------------------|


Both
C#|------------------------------|
G#|------------------------------|
E-|------------------------------|
B |------------------------------|2x
F#|--0-0---0-0-0---00-0-0-0-0-0--|
B-|--0-0---0-0-0---00-0-0-0-0-0--|
     x x   x x x   xx x x x x x




        (Wild riff thing)

C#|-----------------------------|
G#|-----------------------------|
E-|-----------------------------|
B |-----3p0-2p0-----------------|
F#|-------------3-0---------5^--|
B-|--0--------------0-1-0-3-----|





Trapped inside this tainted soul...
C#|------------------------------------------------|
G#|------------------------------------------------|
E-|------------------------------------------------|
B |-----3p0-2p0-------------3p0-2p0----------------| x3
F#|-------------3-------------------3-0------------|
B-|--0------------0-1-0-1-0-------------0-1-0-1-0--|

C#|----------------------------------|
G#|----------------------------------|
E-|----------------------------------|
B |-----3p0-2p0-------------7-0-5-0--| 
F#|-------------3--------------------|
B-|--0------------0-1-0-1-0----------|





(Choir part is just open B's)





How far will I go....
C#|----------------------------------------------------------------------|
G#|-----------------------------------------------------------------5-6--|
E-|--10------9------10----------------------------------------5-7-8------|
B |--x-------x------x-----------7---5--/7---------------5-7-8------------|x2 
F#|--8--0-0--7-0-0--8--0-0--5------------------8--5-7-8------------------|
B-|-----0-0----0-0-----0-0-----------------0-0---------------------------|
        x x    x x     x x                 x x




In all the shadows of the world... 
C#|------------------------------------------------|
G#|------------------------------------------------|
E-|------------------------------------------------|
B |-----3p0-2p0-------------3p0-2p0----------------| x3
F#|-------------3-------------------3-0------------|
B-|--0------------0-1-0-1-0-------------0-1-0-1-0--|

C#|----------------------------------|
G#|----------------------------------|
E-|----------------------------------|
B |-----3p0-2p0-------------7-0-5-0--| 
F#|-------------3--------------------|
B-|--0------------0-1-0-1-0----------|






x = mute note
p = pull off
H = hammer on
^ = bend string
~ = let ring




             lyrics 

Can't see, though my sight is clear
A weakened state of mind
Disgusted, is this who we are?
This wicked kind of lust

How can you deny?
Why can't I just die?

My twisted heart is beating slower
This time my sins won't matter
Innocence won't be here anymore

Trapped inside this tainted soul
so colorless of sin
All this time I've listened to this
deceiving voice within

Take this grief
Bury me

How far will I go
to fill this deep hole?

In all the shadows of the world
I keep on living
Born to prey on the innocence inside

This time my lust is taking over
Inside this hollow body
My own sins won't ever seem to end
My poisoned heart is crying faintly
I hope that light will find me
I can't seem to find it anymore

Innocence harassed by filthy minds

            
            
Suggest correction
Creating personal tab
Creating personal tab
You can edit any tab online and save it as your Personal.

You can edit, replace or remove any tab part or add personal notes – all changes will be seen only by you.

Personal tabs can be accessed anytime from any device, even offline.
Learn more »
Give kudos to tab author, rate the tab!
1 2 3 4 5
comments
print report bad tab
guest
You may want to rate the tab now too:
select rating
Wanna post a correction for this tab? Suggest correction