Oops, an error
Loading. Please wait.

Call Me Call Me Chords

version 1
version 1

Whole song

Interactive

26,380 views 75 this week
2 commentsread comments
1 2 3 4 5
x 11
add to favorites
launch autoscroll
font size
0
reset
transpose
0
reset
simplify chords
display chords
guitar tuner
Autoscroll
slow
fast
+/-
esc
set tempo
stop
Help us to improve Ultimate-Guitar.com Take our survey!
×
Author
Capo
1st fret
Capo 1

[Chords]
Asus2 D  C  G  F#m  C#m  Em7  E  B  B* Bm7 A  E  Bsus2
e|--0--2--3--3---2----4----0---0--2--7---2--0--0---2--|
B|--0--3--1--3---2----5----0---0--4--7---3--2--0---2--|
G|--2--2--0--0---2----6----0---1--4--8---2--2--1---4--|
D|--2--0--2--0---4----6----0---2--4--9---4--2--2---4--|
A|--0--X--3--2---4----4----2---2--2--9---2--0--2---2--|
E|--X--X--X--3---2----X----0---0--X--7---X--X--0---x--|

(Opening)
e|--------0--|
B|--------0--|
G|-2------2--|
D|-0h2----2--|
A|------0-0--|
E|-----------|

[Verse 1]
Asus2                              C
        I close my eyes and I keep seeing things
        D
Rainbow waterfalls
      G
Sunny liquid dreams
Asus2                              C
        Confusion creeps inside me raining doubt
      D
Gotta get to you
      G
But I don't know how

[Hook]
F#m               C#m
        Call me call me
Em7                B
Let me know it's alright
F#m               C#m
        Call me call me
Em7                         B
Don't you think it's 'bout time
Please won't you call and

[Chorus]
Bm7   A        E
Ease  my     mind
Bm7  A      E
Rea-sons   for me to find you
Bm7    A      E
Peace of     mind
           B*
What can I do
   E      A    Bsus2
To get me to you

[Verse 2]
Asus2                                C
        I had your number quite some time ago
          D
Back when we were young
      G
But I had to grow
Asus2                                       C
        Ten thousand years I've searched it seems and now
      D
Gotta get to you
          G
Won't you tell me how

[Hook]
F#m               C#m
        Call me call me
Em7                 B
Let me know you are there
F#m               C#m
        Call me call me
  Em7                  B
I wanna know you still care
Come on now won't you

[Chorus]
Bm7   A        E
Ease  my     mind
Bm7  A      E
Rea-sons   for me to find you
Bm7    A      E
Peace of     mind
           B*
What can I do
   E      A
To get me to

[Instrumental]
e|-7---7---7---7---7---7---7---7-7--|
B|-7---7---7---7---7---7---7---7-7--|
G|-------------------------------8--|  (x2)
D|---9---9---9---9---9---9---9---9--|
A|-------------------------------9--|
E|-------------------------------7--|
 you

e|---------------------------------------------------|
B|---------------------------------------0-1-2-3-4---|
G|-------------------------------0-1-2-3-------------|
D|---------------------0-1-2-3-4---------------------|
A|-----------0-1-2-3-4-------------------------------|
E|-0-1-2-3-4-----------------------------------------|

e|-0-1-2-3-4-5-6-7-8-9-10-11-12-13-14-15-16-17-18-19-----------|
B|-------------------------------------------------------------|
G|-------------------------------------------------------------|
D|-------------------------------------------------------------|
A|-------------------------------------------------------------|
E|-------------------------------------------------------------|

e|-----------------5-4-2-----------------------------|
B|-2-4-5---5-4-0-----------5-4-0-------------0-5-4-0-|
G|---------------------------------------------------|
D|---------------------------------7-6-4---4---------|
A|---------------------------------------------------|
E|---------------------------------------------------|

e|---------------------------------------------------|
B|---------0---0-1-3---0---0-1-3---0-1-3-------------|
G|-------2---2-------2---2-------2-------------------|
D|---------------------------------------------------|
A|---------------------------------------------------|
E|---------------------------------------------------|

e|-----7----7-8-10----7----7-8-10----7-8-10-10-------|
B|--10---10--------10---10--------10------------10---|
G|---------------------------------------------------|
D|---------------------------------------------------|
A|---------------------------------------------------|
E|---------------------------------------------------|

[Chorus]
        G   A     A
Come on now won't you
Bm7    A       E
Ease  my      mind
Bm7  A      E
Rea-sons   for me to find you
Bm7    A      E
Peace of     mind
Bm7  A      E
Rea-sons   for livin my life
Bm7   A      E
Ease my     mind
Bm7  A      E
Rea-sons   for me to know you
Bm7    A      E
Peace of     mind
           B*
What can I do
   E      A    Bsus2
To get me to you
Suggest correction
comments
print report bad tab
2 comments total.
0 reply
Shanyy 103 Mar 06, 2014 05:27 PM

Besides the B* chord, this is perfect.

0 reply
ubercrazyazn 10 Dec 27, 2015 07:36 PM

I think you can play a D instead there if it doesn't sound right to you.

guest
You may want to rate the tab now too:
select rating
Wanna post a correction for this tab? Suggest correction