Oops, an error
Loading. Please wait.

Green Bird Tab

version 3
version 3

Whole song

Interactive

9,775 views 9 this week
1 commentread comment
1 2 3 4 5
x 12
add to favorites
launch autoscroll
font size
0
reset
how to read this tab
guitar tuner
Autoscroll
slow
fast
+/-
esc
set tempo
stop
Help us to improve Ultimate-Guitar.com Take our survey!
×
Author
Difficulty
Capo
novice
5th fret
Green Bird - Yoko Kanno
Tabbed by: XCrusherX@gmail.com
Tuning: Standard with capo on the 5th fret

     Q    Q    Q    Q       Q    Q    Q    Q       E  E  E  E  Q    Q     
e|------------0---------|------------0---------|--------0--1--3---------|
B|--1--------------3----|--1--------------3----|--1--3------------------|
G|-------0---------0----|-------0---------0----|--------0----------0----|
D|--2---------3---------|--2---------3---------|--2-----------3---------|
A|----------------------|----------------------|------------------------|
E|----------------------|----------------------|------------------------|

  Q    Q    Q    Q       Q    E  E  Q    Q       E  E  E  E  Q    Q     
e|----------------------|-------------0---------|--------------0---------|
B|----------------------|--1---------------3----|--1--1-------------3----|
G|-------0---------0----|-------0--0-------0----|--------0--0-------0----|
D|--2---------3---------|--2----------3---------|--2-----------3---------|
A|----------------------|-----------------------|------------------------|
E|----------------------|-----------------------|------------------------|

  E  E  E  E  Q    Q       Q    Q    Q    Q       Q    Q    Q    Q     
e|--------0--1--3---------|----------------------|--0----0----1---------|
B|--1--3------------------|----------------------|--1--------------2----|
G|--------0----------0----|-------0---------0----|-------3----2----0----|
D|--2-----------3---------|--2---------3---------|----------------------|
A|------------------------|----------------------|----------------------|
E|------------------------|----------------------|----------------------|

    Q    Q    H           Q    Q    Q    Q       Q    Q    Q    Q     
e|--0------------------|------------0---------|----------------------|
B|------------3--------|-------1---------3----|--1-------------------|
G|-------2-------------|--0-------------------|-------0---------0----|
D|--4---------0--------|----------------------|--2---------3---------|
A|---------------------|----------------------|----------------------|
E|---------------------|----------------------|----------------------|

    Q    Q    Q    Q       Q    Q    Q    Q       Q    Q    Q    Q     
e|----------------------|----------------------|----------------------|
B|----------------------|----------------------|----------------------|
G|-------0---------0----|-------0---------0----|-------0---------0----|
D|--2---------3---------|--2---------3---------|--2---------3---------|
A|----------------------|----------------------|----------------------|
E|----------------------|----------------------|----------------------|

    Q    Q    Q    Q       Q    Q    Q    Q       E  E  E  E  Q    Q     
e|------------0---------|------------0---------|--------0--1--3---------|
B|--1--------------3----|--1--------------3----|--1--3------------------|
G|-------0---------0----|-------0---------0----|--------0----------0----|
D|--2---------3---------|--2---------3---------|--2-----------3---------|
A|----------------------|----------------------|------------------------|
E|----------------------|----------------------|------------------------|

    Q    Q    Q    Q       Q    E  E  Q    Q       E  E  E  E  Q    Q     
e|----------------------|-------------0---------|--------------0---------|
B|----------------------|--1---------------3----|--1--1-------------3----|
G|-------0---------0----|-------0--0-------0----|--------0--0-------0----|
D|--2---------3---------|--2----------3---------|--2-----------3---------|
A|----------------------|-----------------------|------------------------|
E|----------------------|-----------------------|------------------------|

    E  E  E  E  Q    Q       Q    Q    Q    Q       Q    Q    Q    Q     
e|--------0--1--3---------|----------------------|--0----0----1---------|
B|--1--3------------------|----------------------|--1--------------2----|
G|--------0----------0----|-------0---------0----|-------3----2----0----|
D|--2-----------3---------|--2---------3---------|----------------------|
A|------------------------|----------------------|----------------------|
E|------------------------|----------------------|----------------------|

    Q    Q    H           Q    Q    Q    Q       Q    Q    Q    Q     
e|--0------------------|------------0---------|----------------------|
B|------------3--------|-------1---------3----|--1-------------------|
G|-------2-------------|--0-------------------|-------0---------0----|
D|--4---------0--------|----------------------|--2---------3---------|
A|---------------------|----------------------|----------------------|
E|---------------------|----------------------|----------------------|

    Q    Q    Q    Q       Q    Q    Q    Q       Q    Q    Q    Q     
e|----------------------|----------------------|----------------------|
B|----------------------|----------------------|----------------------|
G|-------0---------0----|-------0---------0----|-------0---------0----|
D|--2---------3---------|--2---------3---------|--2---------3---------|
A|----------------------|----------------------|----------------------|
E|----------------------|----------------------|----------------------|

    Q    Q    Q    E  E     Q    Q    Q    E  E     Q    Q    Q    E  E   
e|--3---------0----------|-----------------------|-----------------------|
B|-------1------------3--|--1---------0----------|-----------------------|
G|-------0---------0-----|-------0---------0--2--|--0----0---------0--2--|
D|--2---------3----------|--2---------3----------|--2---------3----------|
A|-----------------------|-----------------------|-----------------------|
E|-----------------------|-----------------------|-----------------------|

    Q    Q    Q    Q       Q    Q    Q    E  E     Q    Q    Q    E  E   
e|----------------------|--3---------0----------|-----------------------|
B|----------------------|-------1------------3--|--1---------0----------|
G|--0----0---------0----|-------0---------0-----|-------0---------0--2--|
D|--2---------3---------|--2---------3----------|--2---------3----------|
A|----------------------|-----------------------|-----------------------|
E|----------------------|-----------------------|-----------------------|

    Q    Q    Q    E  E     Q    Q    Q    Q       Q    Q    Q    Q     
e|-----------------------|----------------------|------------0---------|
B|-----------------------|----------------------|--1--------------3----|
G|--0----0---------0--2--|--0----0---------0----|-------0---------0----|
D|--2---------3----------|--2---------3---------|--2---------3---------|
A|-----------------------|----------------------|----------------------|
E|-----------------------|----------------------|----------------------|

    Q    Q    Q    Q       E  E  E  E  Q    Q       Q    Q    Q    Q     
e|------------0---------|--------0--1--3---------|----------------------|
B|--1--------------3----|--1--3------------------|----------------------|
G|-------0---------0----|--------0----------0----|-------0---------0----|
D|--2---------3---------|--2-----------3---------|--2---------3---------|
A|----------------------|------------------------|----------------------|
E|----------------------|------------------------|----------------------|

    Q    E  E  Q    Q       E  E  E  E  Q    Q       E  E  E  E  Q    Q     
e|-------------0---------|--------------0---------|--------0--1--3---------|
B|--1---------------3----|--1--1-------------3----|--1--3------------------|
G|-------0--0-------0----|--------0--0-------0----|--------0----------0----|
D|--2----------3---------|--2-----------3---------|--2-----------3---------|
A|-----------------------|------------------------|------------------------|
E|-----------------------|------------------------|------------------------|

    Q    Q    Q    Q       Q    Q    Q    Q       Q    Q    H         
e|----------------------|--0----0----1---------|--0------------------|
B|----------------------|--1--------------2----|------------3--------|
G|-------0---------0----|-------3----2----0----|-------2-------------|
D|--2---------3---------|----------------------|--4---------0--------|
A|----------------------|----------------------|---------------------|
E|----------------------|----------------------|---------------------|

    Q    Q    Q    Q       Q    Q    Q    Q       Q    Q    Q    Q     
e|------------0---------|----------------------|----------------------|
B|-------1---------3----|--1-------------------|----------------------|
G|--0-------------------|-------0---------0----|-------0---------0----|
D|----------------------|--2---------3---------|--2---------3---------|
A|----------------------|----------------------|----------------------|
E|----------------------|----------------------|----------------------|

    Q    Q    Q    Q       Q    Q    Q    Q       W                  
e|----------------------|----------------------|-------------------|
B|----------------------|----------------------|--1----------------|
G|-------0---------0----|-------0---------0----|--0----------------|
D|--2---------3---------|--2---------3---------|--2----------------|
A|----------------------|----------------------|-------------------|
E|----------------------|----------------------|-------------------|

************************************

W - whole
H - half
Q - quarter
E - 8th
S - 16th
T - 32nd
X - 64th
. - note dotted
|-n-|  - n-tuplets

************************************
Suggest correction
comments
print report bad tab
1 comment total.
0 reply
Tab Guy 52 Aug 16, 2011 01:12 AM

Thank you

guest
You may want to rate the tab now too:
select rating
Wanna post a correction for this tab? Suggest correction