Oops, an error
Loading. Please wait.

Heavens Not Enough Tab

3,874 views 1 this week
2 commentsread comments
1 2 3 4 5
excellent!
x 3
add to favorites
launch autoscroll
font size
0
reset
how to read this tab
guitar tuner
Tab Pro tools
  • play this tab
  • loop segment
  • change instrument
  • show fretboard
  • metronome
×
Best way to learn
"Heavens Not Enough"
Autoscroll
slow
fast
+/-
esc
set tempo
stop
Difficulty
intermediate
Artist: Yoko Kanno
Song: Heavens not enough
Tuning: Standerd

This is my first tab on this site and ive never made a tab before, so if you have
any problems email me at shadowkid10@hotmail.com

I noticed their were no tabs for this song so I decided to try and figure it out myself.

Intro:

|-----0-----0---0-|-----0-----0---0-|-----0-----0-----0-|-----0-----0----0-|
|---1-----1---1---|---1-----1---1---|---1-----1-----1---|---1-----1----1---|
|-2-----2---------|-0-----0---------|-------------------|------------------|
|-----------------|-----------------|-3-----3-----3-----|-3-----3----------|
|-----------------|-----------------|-------------------|------------------|
|-----------------|-----------------|-------------------|------------------|



Chords:
|-------0---------|-------0---------|--------0----------|-------2----------|
|-------1---------|-------0---------|--------1----------|-------3----------|
|-------2---------|-------1---------|--------0----------|-------2----------| X2
|-------2---------|-------2---------|--------2----------|-------0----------|
|-----------------|-------2---------|--------3----------|------------------|
|-----------------|-----------------|-------------------|------------------|


|-------0---------|-------3---------|--------1----------|-------0----------|
|-------1---------|-------3---------|--------1----------|-------0----------|
|-------2---------|-------0---------|--------1----------|-------0----------|
|-------2---------|-------0---------|--------3----------|-------2----------|
|-----------------|-------2---------|--------3----------|-------2----------|
|-----------------|-------3---------|--------1----------|-------0----------|


|-------0---------|-------3---------|--------0----------|-------0----------|
|-------1---------|-------3---------|--------0----------|-------0----------|
|-------2---------|-------0---------|--------2----------|-------2----------|
|-------2---------|-------0---------|--------3----------|-------3----------|
|-----------------|-------2---------|-------------------|------------------|
|-----------------|-------3---------|-------------------|------------------|

|-------0---------|-------3---------|--------1----------|-------1----------|
|-------1---------|-------3---------|--------1----------|-------1----------|
|-------2---------|-------0---------|--------1----------|-------1----------|
|-------2---------|-------0---------|--------3----------|-------3----------|
|-----------------|-------2---------|--------3----------|-------3----------|
|-----------------|-------3---------|--------1----------|-------1----------|


Then the next part is like at about 3:00 where it gets all climatic, and strum the chords
however you feel fit doing it. :p

|-------0---------|-------3---------|--------2----------|-------2----------|
|-------1---------|-------3---------|--------3----------|-------3----------|
|-------2---------|-------0---------|--------2----------|-------2----------|
|-------2---------|-------0---------|--------0----------|-------0----------|
|-----------------|-------2---------|-------------------|------------------|
|-----------------|-------3---------|-------------------|------------------|

|-------0---------|-------3---------|--------2----------|-------2----------|
|-------1---------|-------3---------|--------3----------|-------3----------|
|-------2---------|-------0---------|--------2----------|-------2----------|
|-------2---------|-------0---------|--------0----------|-------0----------|
|-----------------|-------2---------|-------------------|------------------|
|-----------------|-------3---------|-------------------|------------------|


And then the last bit goes like this


|-------0---------|-------3---------|-------------------|------------------|
|-------1---------|-------3---------|-------------------|------------------|
|-------2---------|-------0---------|-------------------|------------------|
|-------2---------|-------0---------|-------------------|------------------|
|-----------------|-------2---------|--10-8-7-6---------|------------------|
|-----------------|-------3---------|--8--6-5-4---------|------------------|

then play the intro if you want again and your good haha. I know its not perfect
but you listen along its mostly accurate. At least now you guys got something to work with.

The last bit is power chords haha. I hope you guys enjoy this it took me forever
to do, thank god though. Bet you just been dying to play this song. ;)
comments
We did not receive enough feedback on this tab! Please rate:
print report bad tab
1 2 3 4 5
2 comments total.
0 reply
aliatwy wrote on February 11 2015, 03:40 pm

I think the intro sounds more accurate like this...


|-----0-----0-----|-----0-----0-----|-----0-----0-----0-|-----0-----0------|
|---1-----1---1---|---1-----1---1---|---1-----1-----1---|---1-----1----1---|
|-2-----2---2-----|-0-----0---0-----|-------------------|------------------|
|-----------------|-----------------|-3-----3-----3-----|-3-----3----3-----|
|-----------------|-----------------|-------------------|------------------|
|-----------------|-----------------|-------------------|------------------|

+1 reply
aliatwy wrote on February 11 2015, 03:53 pm

One more correction in the intro..


|-----0-----0-----|-----0-----0-----|-----0-----0-------|-----0-----0------|
|---1-----1---1---|---1-----1---1---|---1-----1-----1---|---1-----1----1---|
|-2-----2---2-----|-0-----0---0-----|-------------------|------------------|
|-----------------|-----------------|-3-----3-----3-----|-3-----3----3-----|
|-----------------|-----------------|-------------------|------------------|
|-----------------|-----------------|-------------------|------------------|

I want to post or [tab]
guest
You may want to rate the tab now too:
select rating
Please do not post tabs as comments. Select "correction" instead!