Oops, an error
Loading. Please wait.

Rain Tab

5,272 views 18 this week
1 commentread comment
1 2 3 4 5
accurate
x 5
add to favorites
launch autoscroll
font size
0
reset
how to read this tab
guitar tuner
Tab Pro tools
  • play this tab
  • loop segment
  • change instrument
  • show fretboard
  • metronome
Autoscroll
slow
fast
+/-
esc
set tempo
stop
Contributor
Rain
From Cowboy Bebop
Music by Yoko Kanno
Words by Tim Jensen

e--8------------8------------8------------8---|
B--10-----------10-----------10-----------10--|
G--10-----------10-----------10-----------10--|
D---------------------------------------------|
A---------------------------------------------|
E---------------------------------------------|

   I don't feel a thing
   Mother used to say

e------8-----------8-----------8-----------8--|
B------9-----------9-----------9-----------9--|
G------10----------10----------10----------10-|
D---------------------------------------------|
A---------------------------------------------|
E---------------------------------------------|

 And I stopped remembering
If you want you'll find a way

e----6---------6--------6-------6-------------|
G----9---------9--------8-------8-------------|
B----8---------8--------8-------8-------------|
D---------------------------------------------|
A---------------------------------------------|
E---------------------------------------------|

The days are just like moments turned to
But mother never danced through fire


                                 (First time only)
e--6------------6------------6-----------(6)------|
G--6------------6------------6-----------(6)------|
B--7------------7------------7-----------(7)------|
D-------------------------------------------------|
A-------------------------------------------------|
E-------------------------------------------------|

      Hours
      Shower


Chorus
Bbm          F            Bbm          F
Walk, in the rain, in the rain, in the rain

              Dm           A
I walk in the rain, in the rain

      F#m7        C#
Is it right, or is it wrong

C#m       Amaj7
      And is it here

     G#sus4   G#
That I,       belong

e--8------------8------------8------------8--|
B--10-----------10-----------10-----------10-|
G--10-----------10-----------10-----------10-|
D--------------------------------------------|
A--------------------------------------------|
E--------------------------------------------|

   I don't hear a sound
   If there is a hell


e--------8---------8------------------------|
B--------9---------9------------------------|
G--------10--------10-----------------------|
D-------------------------------------------|
A------------------------8-10-11---11-10-8--|
E-------------------------------------------|

  Silent faces in the ground
I'm sure this is how it smells

e----6----------6----------6----------6------|
G----9----------9----------8----------8------|
B----8----------8----------8----------8------|
D--------------------------------------------|
A--------------------------------------------|
E--------------------------------------------|

 The quiet screams,    but I refuse
     Wish this were a dream,      but no

                       (First time only)
                       [Second time only]
e--6----------6--------[6]--------------------|
B--6----------6--------[6]--------------------|
G--7----------7--------[7]--------------------|
D---------------------------------------------|
A-----------------------(---------6--8---)----|
E-----------------------(6--8--9--------6)----|

To listen
It isn't


Chorus


e--------------------------4p3p1h3--------------------|
B------------------1----------------3-3----0----------|
G-------2------2h3---------------------------3--------|
D---3h5-----------------------------------------------|
A-----------------------------------------------------|
E-----------------------------------------------------|


e----------------------1-1-1--3h4p3p1h3---11-11---10--|
B-----3-4-3-4-1---------------------------------------|
G--3--------------3-2---------------------------------|
D-----------------------------------------------------|
A-----------------------------------------------------|
E-----------------------------------------------------|

Chorus

Then end on an F
comments
print report bad tab
1 comment total.
0 reply
orvis wrote on October 1 2013, 07:19 pm

Finally, someone who put up the correct chords!

I want to post or [tab]
guest
You may want to rate the tab now too:
select rating
Please do not post tabs as comments. Select "correction" instead!