Oops, an error
Loading. Please wait.

Tank Bass

version 1
version 1

Whole song

7,538 views 3 this week
2 commentsread comments
1 2 3 4 5
x 6
add to favorites
launch autoscroll
font size
0
reset
guitar tuner
×
Best way to learn
"Tank"
Autoscroll
slow
fast
+/-
esc
set tempo
stop
Author
Difficulty
Main Riff
G--------------------------------------------|
D--------5--4--3--1--------------------------|
A---3-------------------1--3-----------------|
E--------------------------------------------|

Key Change
G-------------------------------------------|
D-------11--10--9--6------------------------|
A---9---------------------6--9--------------|
E-------------------------------------------|
Suggest correction
comments
print report bad tab
2 comments total.
+1 reply
Tab Guy 52 Nov 02, 2011 01:40 PM

Great tab, but, it sounds like the key change is a fret too high, so it should be more like:

G-------------------------------------------|
D-------10--9--8--6-------------------------|
A---8---------------------6--8--------------|
E-------------------------------------------|

guest
You may want to rate the tab now too:
select rating
Wanna post a correction for this tab? Suggest correction