Oops, an error
Loading. Please wait.

Tank Tab

version 1
version 1

Whole song

12,547 views 81 this week
1 commentread comment
1 2 3 4 5
x 6
add to favorites
×
Save as Personal and add changes to this tab that will be seen only by you. Learn more ›
×
You can save this tab as Personal to edit and correct it or add notes. All changes will be seen only by you. Learn more »
save as personal
new!
launch autoscroll
font size
0
reset
how to read this tab
guitar tuner
Autoscroll
slow
fast
+/-
esc
set tempo
stop
Author
Difficulty
novice
|-----------------------------------------------5--5--5-5----4--4--4-4-------10-10-10-9-9-9--|
|-----------------------------------------------5--5--5-5----4--4--4-4-------10-10-10-9-9-9--|
|-----------------------------------------------5--5--5-5----4--4--4-4-------10-10-10-9-9-9--|
|----5-4-3-1-------------11-10-9-7--------------4--4--4-4----3--3--3-3-------9--9--9--8-8-8--|
|--3---------1-3-------9-----------7-9-----3-5--5--5--5-5----4--4--4-4-------10-10-10-9-9-9--|
|--------------------------------------------------------------------------------------------|

The rhythm isn't exactly right here, but just listen to the song a few times and
you'll get it down.
Suggest correction
comments
print report bad tab
1 comment total.
0 reply
kakkorato 16 Dec 22, 2016 10:01 PM

|-----------------------------------------5--5--5-5----4--4--4-4-------10-10-10-9-9-9--|
|-----------------------------------------5--5--5-5----4--4--4-4-------10-10-10-9-9-9--|
|-------------------------5-4-3-1---------5--5--5-5----4--4--4-4-------10-10-10-9-9-9--|
|----5-4-3-1-------------3-3-3-3---1-3----4--4--4-4----3--3--3-3-------9--9--9--8-8-8--|
|---3-3-3-3---1-3-------------------------5--5--5-5----4--4--4-4-------10-10-10-9-9-9--|
|--------------------------------------------------------------------------------------|

guest
You may want to rate the tab now too:
select rating
Wanna post a correction for this tab? Suggest correction