Oops, an error
Loading. Please wait.

The Real Folk Blues Tab

version 1
version 1

Whole song

Interactive

18,511 views 51 this week
no commentswrite comment
1 2 3 4 5
x 4
add to favorites
launch autoscroll
font size
0
reset
how to read this tab
guitar tuner
Autoscroll
slow
fast
+/-
esc
set tempo
stop
Help us to improve Ultimate-Guitar.com Take our survey!
×
Author
Difficulty
Capo
novice
2nd fret
Yoko Kanno feat. The Seatbelts - The Real Folk Blues
Cowboy Bebop

Chords Needed (Capo 2)

   Em  G C#m  C  D  A  B
e|--0--3--0---0--3--0--0--|
B|--0--3--0---1--2--2--4--|
G|--0--0--0---0--3--2--4--|
D|--2--0--2---2--0--2--4--|
A|--2--2--4---3--X--0--2--|
E|--0--3--X---x--X--X--X--|

Opening Horn Riff
guitar 1
e|--------------------------------|
B|--------------------------------|
G|----------------2---------------|
D|---0-2-2-0-2--0-----0-2-2-0-2-0-|
A|-2----------------2-------------|
E|--------------------------------|
guitar 2
e|------------------------------------------|
B|--------------------10--------------------|
G|----9-11-11-9-11-9---------9-11-11-9-11-9-|
D|-11---------------------11----------------|
A|------------------------------------------|
E|------------------------------------------|


Various riffs used under the chords (listen for uses)

e|---------|-----------|---------------|
B|---------|-----------|---------------|
G|-------0-|-------0---|----2-------2--|
D|-----2---|-----2---2-|-0h2----0h2--2-|
A|-0h2-----|-2s4-------|---------------|
E|---------|-----------|---------------|

and if you know any other light blues, you can probably fit them in


intro
  Em  G  C#m  C x2

Verse
Em		G
Aishiteta to nageku ni wa
C#m			    C		D
Amari ni mo toki wa sugi te shimatta
Em		G
Mada kokoro no hokorobi o
C#m		     C      D
Iyasenumama kaze ga fuiteru

Em                   G
Hitotsu no me de asu o mite
C#m                          C         D
Hitotsu no me de kinou mitsumeteru
Em                 G
Kimi no ai no yurikagode
C#m                       C            D
Mo ichido yasurakani nemuretara

Prechorus

Em   A	       C#m  	C	  B
Kawaita hitomi de dareka na itekure

Chorus
	 Em
The real folk blues
B	 G		 C#m	C
Honto no kanashimi ga shiritaidake
	Em	  B	G	      C#m   C
Doro no kawa ni sukatta jinsei mo warukuwanai
	B     A   B	 Em
Ichido kiri de    owarunara

Verse
Em                   G
Kibou ni michita zetsuboto
C#m                         C        D
Wanagashikakerareteru kono chansu
Em                  G
Nani ga yoku te warui no ka
C#m                    C        D
Koin no omoi to kuramitaita

Prechorus
Em       A       C#m     C         B
Dore dake ikireba iyasareru no darou

End Chorus
           Em
The real folk blues
B       G                C#m     C
Honto no yorokobi ga shiritai dake
       Em      B        G       C#m       C
Hikaru mono no subete ga ougen to wa kagiranai
           Em
The real folk blues
B       G               C#m     C
Honto no kanashimi ga shiritaidake
        Em       B     G             C#m    C
Doro no kawa ni sukatta jinsei mo warukuwanai
       B      A B     Em
Ichido kiri de  owarunara

rock the opening till the end, and if you're good you can totally improv a kick ass 
solo withe heavy distortion and light Wah all the way to the end.
Suggest correction
comments
print report bad tab
guest
You may want to rate the tab now too:
select rating
Wanna post a correction for this tab? Suggest correction