Oops, an error
Loading. Please wait.

The Real Folk Blues tab

version 2
version 2

Whole song

Interactive

316 views 1 this week
no commentswrite comment
1 2 3 4 5
2 more votes to show rating
add to favorites
×
Save as Personal and add changes to this tab that will be seen only by you. Learn more ›
×
You can save this tab as Personal to edit and correct it or add notes. All changes will be seen only by you. Learn more »
launch autoscroll
font size
0
reset
how to read this tab
guitar tuner
edit
Autoscroll
slow
fast
+/-
esc
set tempo
stop
Author
Difficulty
The song plays a combination of electric and acoustic guitar. The electric is at left and right in the CD.
Acoustic guitar is important to keep a sense of code!
On electric, start with the "gu-gu-garn," riff that is the backbone of the song and improv response.


INTRO:

   F#m7                         Aadd9                         D#m7b5              Dmaj7
e|-----------------------------|-----------------------------|-------------------|----------------------------|
b|-----------------------------|-----------------------------|--------2-------2--|--------2-------------------|
g|---------------------2-------|--------2--------------------|--------2-------2--|--------2-----------2~~~~~~-|
d|--------4----------2---------|--------2--------------2----\|1---1--------------|0---0---------2h3h4---------|
a|--------4------2h4-----------|0---0--------------2h4-------|-------------------|----------------------------|
e|2---2------------------------|-----------------0-----------|-------------------|----------------------------|

   F#m7                         Aadd9                         D#m7b5              Dmaj7(6)
e|-----------------------------|-----------------------------|-------------------|----------------------------|
b|-----------------------------|-------------------2---------|--------2-------2--|--------2---------2p1h2-----|
g|---------------------2-------|--------2----------2-----2---|--------2-------2--|--------2---------------2/4~|
d|--------4----------2---------|--------2---------2--4p2----\|1---1--------------|0---0-----------------------|
a|--------4------2h4-----------|0---0---------2h4------------|-------------------|----------------------------|
e|2---2------------------------|-----------------------------|-------------------|----------------------------|

VERSE:

F#m7             Aadd9
Aishiteta to nageku niwa
   B7                       F#m7   E
Amarinimo toki wa sugitte shimatta
F#m7               Aadd9
Mada kokoro no hokorobi wo
   B7                   F#m7    F#m7
Iyasenu mama kaze ga fuiteru

F#m7                 Aadd9
Hitotsu no me de asu o mite
    B7                      F#m7   E
Hitotsu no me de kinou mitsumeteru
F#m7              Aadd9
Kimi no ai no yurikagode
   B7                     F#m7
Mo ichido yasuraka ni nemuretara

PRE-CHORUS:

Bm7                 D#m7b5    Dmaj7  C#7sus4    C#7
   Kawaita hitomi de dare ka naite kure

CHORUS:

         B7
The real folk blues
  C#7    F#m               F#m7/E
Honto no   kanashimi ga shiritai dake
        B7/D#      C#7/F
Doro no kawa ni tsukatta
Em7(11)  A7(9)    D#m7b5    Dmaj7(6)
      Jinsei mo waruku wa nai
       Aadd9/C#    B7
Ichido kiri de         owaru nara

INTRO:

VERSE:

F#m7                  Aadd9
Kibou ni michita zetsuboto
    B7                     F#m7   E
Wanagashikakerareteru kono chansu
F#m7                Aadd9
Nani ga yoku te warui no ka
   B7                   F#m7
Koin no omoi to kuramitaita

PRE-CHORUS:

Bm7                D#m7b5  Dmaj7    C#7sus4    C#7
  Dore dake ikire ba iyasereru no darou

CHORUS:

         B7
The real folk blues
  C#7    F#m              F#m7/E
Honto no   yorokobi ga shiritai dake
        B7/D#    C#7/F   F#m7                F#m7
Hikaru mono no subete ga   ougen to wa kagiranai   yeah...

CHORUS:

         B7
The real folk blues
  C#7    F#m               F#m7/E
Honto no   kanashimi ga shiritai dake
        B7/D#      C#7/F
Doro no kawa ni tsukatta
Em7(11) A7(9)    D#m7b5    Dmaj7(6)
     Jinsei mo waruku wa nai
       Aadd9/C#    B7
Ichido kiri de         owaru nara

SOLO SECTION:

F#m7 x8

F#m7    B7/F#    F#m7    B7(9)/F#    :repeat

FIN

            
            
Suggest correction
Creating personal tab
Creating personal tab
You can edit any tab online and save it as your Personal.

You can edit, replace or remove any tab part or add personal notes – all changes will be seen only by you.

Personal tabs can be accessed anytime from any device, even offline.
Learn more »
Give kudos to tab author, rate the tab!
1 2 3 4 5
comments
print report bad tab
guest
You may want to rate the tab now too:
select rating
Wanna post a correction for this tab? Suggest correction