Oops, an error
Loading. Please wait.

Wo Qui Non Coin Tab

version 1
version 1

Whole song

Interactive

17,937 views 33 this week
3 commentsread comments
1 2 3 4 5
x 7
add to favorites
×
Save as Personal and add changes to this tab that will be seen only by you. Learn more ›
×
You can save this tab as Personal to edit and correct it or add notes. All changes will be seen only by you. Learn more »
save as personal
new!
launch autoscroll
font size
0
reset
how to read this tab
guitar tuner
Autoscroll
slow
fast
+/-
esc
set tempo
stop
Author
Tuning: a half step lower than standard tuning: Eb/G#/C#/F#/Bb/Eb
   
The whole song has this plucking style...
 
e|-------|-------|-------|
B|--5--5-|--5--5-|--1—-1-|
G|--5--5-|--5--5-|--2—-2-|
D|-------|-------|-------|
A|-------|-5-----|-------|
E|-5-----|-------|-3-----|

Here is the song:

[Part 1]
   (x2)   (x2)             (x2)             (x2)   (x3)      
e|-----|-----|-----|-----|-----|-----|-----|-----|-----|-----|
B|--5--|--5--|--1—-|--5--|--5--|--5--|--3--|--5—-|--1--|--5--|
G|--5--|--5--|--2—-|--4—-|--5--|--5--|--4—-|--5—-|--2--|--4--|
D|-----|-----|-----|-----|-----|-/3--|--2--|-----|-----|-----|
A|-----|--5--|-----|-----|-----|-----|-----|--5--|-----|-----|
E|--5--|-----|--3--|--4--|--5--|-----|-----|-----|--3--|--4--| 

  (x2)   (x2)             (x2)              (x2)   (x4)
e|------------------------------------------------|
B|---5----5----1----5----5-----5----3----5----1---|
G|---5----5----2----4----5-----5----4----5----2---|
D|----------------------------/3----2-------------|
A|--------5------------------------------5--------|
E|---5---------3----4----5--------------------3---|

[Part 2]
    (x2)  (x2)  (x2)  (x2)  (x2)          (x3)
e|---------------------------------------|
B|---1---3---3---3---1---1---3---5---5---|
G|---2---4---4---3---2---2---4---5---5---|
D|----------/2---1---0-------------------|
A|---------------------------------------|
E|---2---1---------------3---3---5---3---|

    (x2)  (x2)  (x2)  (x2)  (x2)           
e|-------------------------------|
B|---1---3---3---3---1---1---3---|
G|---2---4---4---3---2---2---4---|
D|----------/2---1---0-----------|
A|-------------------------------|
E|---2---1---------------3---3---|

[Part 3]
                                            (x3)
e|------------------------------------------------|
B|----1---3---3—-(1)----5---5---3---(1)---1---5---|
G|----2---2---1—-(1)----5---7---4---(2)---2---4---|
D|-------------—----------------------------------|
A|------------------------------------------------|
E|--1-----------------5-------------------3---4---|

[Part 1]
   (x2)   (x2)             (x2)             (x2)   (x3)      
e|-----|-----|-----|-----|-----|-----|-----|-----|-----|-----|
B|--5--|--5--|--1—-|--5--|--5--|--5--|--3--|--5—-|--1--|--5--|
G|--5--|--5--|--2—-|--4—-|--5--|--5--|--4—-|--5—-|--2--|--4--|
D|-----|-----|-----|-----|-----|-/3--|--2--|-----|-----|-----|
A|-----|--5--|-----|-----|-----|-----|-----|--5--|-----|-----|
E|--5--|-----|--3--|--4--|--5--|-----|-----|-----|--3--|--4--| 

  (x2)   (x2)             (x2)              (x2)   (x4)
e|------------------------------------------------|
B|---5----5----1----5----5-----5----3----5----1---|
G|---5----5----2----4----5-----5----4----5----2---|
D|----------------------------/3----2-------------|
A|--------5------------------------------5--------|
E|---5---------3----4----5--------------------3---|

[Part 2]
    (x2)  (x2)  (x2)  (x2)  (x2)          (x3)
e|---------------------------------------|
B|---1---3---3---3---1---1---3---5---5---|
G|---2---4---4---3---2---2---4---5---5---|
D|----------/2---1---0-------------------|
A|---------------------------------------|
E|---2---1---------------3---3---5---3---|

    (x2)  (x2)  (x2)  (x2)  (x2)           
e|-------------------------------|
B|---1---3---3---3---1---1---3---|
G|---2---4---4---3---2---2---4---|
D|----------/2---1---0-----------|
A|-------------------------------|
E|---2---1---------------3---3---|

[Part 3]
                                            (x3)
e|------------------------------------------------|
B|----1---3---3—-(1)----5---5---3---(1)---1---5---|
G|----2---2---1—-(1)----5---7---4---(2)---2---4---|
D|-------------—----------------------------------|
A|------------------------------------------------|
E|--1-----------------5-------------------3---4---|

   (x2)   (x2)             (x2)             (x2)   (x3)      
e|-----|-----|-----|-----|-----|-----|-----|-----|-----|-----|
B|--5--|--5--|--1—-|--5--|--5--|--5--|--3--|--5—-|--1--|--5--|
G|--5--|--5--|--2—-|--4—-|--5--|--5--|--4—-|--5—-|--2--|--4--|
D|-----|-----|-----|-----|-----|-/3--|--2--|-----|-----|-----|
A|-----|--5--|-----|-----|-----|-----|-----|--5--|-----|-----|
E|--5--|-----|--3--|--4--|--5--|-----|-----|-----|--3--|--4--| 

[Outro] (x2)
   (x2)    (x2)    (x2)    (x2)    (x2)    (x2)           
e|-----|-----|-----|-----|-----|-----|-----|-----|-----|-----|
B|--5--|--5--|--1—-|--5--|--5--|--1--|--5--|--4—-|--10-|--9--|
G|--5--|--5--|--2—-|--4—-|--5--|--2--|--4—-|--4—-|--7--|--7--|
D|-----|-----|-----|-----|-----|-----|-----|-----|-----|-----|
A|-----|--5--|-----|--3--|-----|-----|--2--|--2--|-/7--|--7--|
E|--5--|-----|--3--|-----|--5--|--2--|-----|-----|-----|-----|



************************************

| /    Slide up
| (n)  Ghost note
| —  

************************************
Suggest correction
comments
print report bad tab
3 comments total.
0 reply
Pastore Louis 10 May 10, 2010 07:41 AM

Pretty cool tablature, son of mine.

But I got one simple question: Don't you think that half-step-down tuning is not needed here?

0 reply
feadineron 10 Jan 13, 2014 01:10 PM

I play the second part like this, and it works out pretty well. Note that the only difference is the third and fourth chords.

x2  x2  x2  x2  x2          x3 
e|---------------------------------------|
B|---1---3---8-------1---1---3---5---5---|
G|---2---4---7---7---2---2---4---5---5---|
D|-----------9---8---0-------------------|
A|----------/7---6-----------------------|
E|---2---1---------------3---3---5---3---|

x2 x2 x2 x2 x2
e|-------------------------------|
B|---1---3---8-------1---1---3---|
G|---2---4---7---7---2---2---4---|
D|-----------9---8---0-----------|
A|----------/7---6---------------|
E|---2---1---------------3---3---|

0 reply
theophile.loaec 10 Jun 20, 2014 08:26 AM

THANKS ! It's perfect and totaly clear :D

guest
You may want to rate the tab now too:
select rating
Wanna post a correction for this tab? Suggest correction