Oops, an error
Loading. Please wait.

Dearly Beloved Tab

version 2
version 2

Whole song

Interactive

49 views 1 this week
no commentswrite comment
1 2 3 4 5
2 more votes to show rating
add to favorites
launch autoscroll
font size
0
reset
how to read this tab
guitar tuner
Autoscroll
slow
fast
+/-
esc
set tempo
stop
Help us to improve Ultimate-Guitar.com Take our survey!
×
Author
Difficulty
novice
Yoko Shimomura - Dearly Beloved 

Tabbed by Daniel Hwang

Standard Tuning - No Capo

[Intro]

e|--9--------------11--|--9--------------11--|--12----11----16----14--|
B|-------9----7--------|-------9----7--------|------------------------|
G|---------------------|---------------------|------------------------|
D|---------------------|---------------------|------------------------|
A|---------------------|---------------------|------------------------|
E|---------------------|---------------------|------------------------|

e|--12----11----9----7-|---9-----------------|--7---------------------|
B|---------------------|---------------------|------------------------|
G|---------------------|---------------------|------------------------|
D|---------------------|---------------------|------------------------|
A|---------------------|---------------------|------------------------|
E|---------------------|---------------------|------------------------|
                            

[Verse]

e|--9--9--------|--------11--11--|--9--9--------|--------11--11/12--|
B|--------9--9--|--7--7----------|--------9--9--|--7--7-------------|
G|--------------|----------------|--------------|-------------------|
D|--------------|----------------|--------------|-------------------|
A|--0-----------|----------------|--------------|-------------------|
E|--------------|----------------|--0-----------|-------------------|

e|--12--12--11--11--|--16--16--14h16p14--|--12--12--11--11--|--9--9--7--7/9--9~------|
B|------------------|--------------------|------------------|------------------------|
G|------------------|--------------------|------------------|------------------------|
D|------------------|--------------------|------------------|------------------------|
A|------------------|--------------------|--0---------------|------------------------|
E|--0---------------|--------------------|------------------|------------------------|


[Bridge]

e|--9--5--7~--16~--|--14--16--|--14--16--14--16--|--14--|--14--|
B|-----------------|----------|------------------|------|------|
G|-----------------|----------|------------------|------|------|
D|-----------------|----------|------------------|------|------|
A|-----------------|----------|------------------|------|------|
E|-----------------|----------|------------------|------|------|

[Outro]

e|--9--9----------|---------11--11--|--9~--9~-----------|-----11--11/12--|
B|--------9~--9~--|--7~--7~---------|---------9~--9\7~--|-7~-------------|
G|----------------|-----------------|-------------------|----------------|
D|----------------|-----------------|-------------------|----------------|
A|--0-------------|-----------------|-------------------|----------------|
E|----------------|-----------------|--0----------------|----------------|

e|--12--12--11--11--|--16--16--14h16p14--|--12--12--11--11/9--|--9--9\7--7--7/9--9--|
B|------------------|--------------------|--------------------|---------------------|
G|------------------|--------------------|--------------------|---------------------|
D|------------------|--------------------|--------------------|---------------------|
A|------------------|--------------------|--0-----------------|---------------------|
E|--0---------------|--------------------|--------------------|---------------------|



************************************

| h   Hammer-on
| p   Pull-off
| /   Slide up
| \   Slide down
| ~   Vibrato

************************************
Suggest correction
Give kudos to tab author, rate the tab!
1 2 3 4 5
comments
print report bad tab
guest
You may want to rate the tab now too:
select rating
Wanna post a correction for this tab? Suggest correction