Oops, an error
Loading. Please wait.

Kambelen Tab

1 view 1 this week
no commentswrite comment
1 2 3 4 5
3 more votes to show rating
add to favorites
launch autoscroll
font size
0
reset
how to read this tab
guitar tuner
Autoscroll
slow
fast
+/-
esc
set tempo
stop
Help us to improve Ultimate-Guitar.com Take our survey!
×
Author
Difficulty
advanced
[Solo]
(starts at 0:46)

e|-7-10p7---------------------------------------------7----5~--|
B|---------8----------------------------------------5----5-----|
G|-----------9-----7----------------------------4-5------------|
D|-------------8h9---9-8-7-5------------------7----------------|
A|---------------------------7--------------7------------------|
E|-----------------------------8-7~-5-7-8----------------------|

e|-15-12-13----12-10h12p10-----------------------------10-13-12-10--|
B|----------14-------------13-10--------------------10--------------|
G|-------------------------------10---------------10----------------|
D|----------------------------------12-11-10-9-12-------------------|
A|------------------------------------------------------------------|
E|------------------------------------------------------------------|

e|---------------------------------10-12-11h12p11------------|
B|-13-10------------------------10----------------12---------|
G|-------10------------------10----------------------12------|
D|----------12-10h12p10p9-12----------------------------13~--|
A|-----------------------------------------------------------|
E|-----------------------------------------------------------|

e|-------------------14-17-16-0-16-0-16~-12-12h13p12-12-10----------|
B|-------------13-16---------------------------------------13-12-10-|
G|----------14------------------------------------------------------|
D|----13-16---------------------------------------------------------|
A|-14---------------------------------------------------------------|
E|------------------------------------------------------------------|

e|-------------------------------------12-17---|
B|-9-12-9-10---------------------12-13---------|
G|-----------9--------------9-14---------------|
D|-------------10-9----9-10--------------------|
A|------------------12-------------------------|
E|---------------------------------------------|

e|-5-4-3-------------------5-4-3-----------------|
B|-------------------5-4-3-----------------------|
G|-----------------------------------------------|
D|-------7-6-5-5-4-3-------------7-6-5-5-4-3-2~--|
A|-----------------------------------------------|
E|-----------------------------------------------|
                                                                  
e|--------------------3-7-6-5h6p5~-6-7-8-7-------------------------------|
B|------------------5----------------------10-7---------10-7-------------|
G|----------4-7-4-5-----------------------------8------------8-----------|
D|------2-5---------------------------------------9-8-7--------9-8-7h8p7-|
A|-/3-3------------------------------------------------------------------|
E|-----------------------------------------------------------------------|

e|----------------------------------|
B|----------------------------------|
G|-----7-10-7-8-9-7-----------------|
D|-6-9--------------9-6-------------|
A|----------------------8-5---------|
E|--------------------------7-5-4-7-|

e|-----------------7---5------------6br7-5h6p5-4-5--|
B|---------------5---5-----------5------------------|
G|-----------4-5-------------4-5--------------------|
D|---------7---------------7------------------------|
A|-------7------------------------------------------|
E|-5-7-8--------------------------------------------|

e|-/13-9-12--10h12p10------------------------------------------------|
B|--------------------10---------------------------------------------|
G|-----------------------10------------12-11-10h11p10--9-10----------|
D|--------------------------12-11-10-9----------------------12-------|
A|-------------------------------------------------------------12----|
E|----------------------------------------------------------------13-|

e|---------------------------10-8h10p8-------------------------|
B|------------------------10-----------10-7--------------------|
G|-------------------9-10-------------------8------------------|
D|----------------12--------------------------10-7-------------|
A|-------------12----------------------------------9-6---------|
E|-12-10-12-13-----------------------------------------8-6-7~--|

e|------------------------7-10-8h10p8p7-8--|
B|----------------------9------------------|
G|-------------7-10-8-9--------------------|
D|---------6-9-----------------------------|
A|-0-5-6-7---------------------------------|
E|-----------------------------------------|

e|-17p12----------12-16p12---------12-15p12----------14p12----------12--|
B|-------13----13----------13---13----------13----13-------13----13-----|
G|----------14---------------14----------------14-------------14--------|
D|----------------------------------------------------------------------|
A|----------------------------------------------------------------------|
E|----------------------------------------------------------------------|

e|-17p12----------12-16p12-------15p12----------12-12h14p12~--|
B|-------13----13----------13----------13----13---------------|
G|----------14----------------14----------14------------------|
D|-------------------------------------~----------------------|
A|------------------------------------------------------------|
E|------------------------------------------------------------|

e|----12-15-12-8------------------------|
B|-13------------8----------------------|
G|-----------------9--------------------|
D|-------------------10-5---------------|
A|------------------------7-5h7p5-3-3~--|
E|--------------------------------------|

e|-7-11-7---------------------------------------------------------|
B|--------10-7---------10-7---------------------------------------|
G|-------------8------------8-------------------------------------|
D|---------------9-8-7--------9-8-7h8p7~-6------------------------|
A|-----------------------------------------8-7-5-------7----------|
E|-----------------------------------------------8-7-5---5-4-5-5--|

e|-17p12----------12-16p12----------12-15p12----------12-14p12----------|
B|-------13----13----------13----13----------13----13----------13----13-|
G|----------14----------------14----------------14----------------14----|
D|-------------------------------------~--------------------------------|
A|----------------------------------------------------------------------|
E|------------------------------------------------------------------|

e|-12-17p12----------12-16p12----------15p12----------14p12---------|
B|----------13----13----------13----13-------13----13-------13------|
G|-------------14----------------14-------------14-------------14---|
D|------------------------------------------------------------------|
A|------------------------------------------------------------------|
E|------------------------------------------------------------------|

e|------------------------------------------------------------------------|
B|-6-6-------6-6-------6-6-------6-6-------6-6-------6-6-------6-6--------|
G|-----7-4-------7-4-------7-4-------7-4-------7-4-------7-4-------7-4----|
D|---------7---------7---------7---------7---------7---------7---------7--|
A|------------------------------------------------------------------------|
E|------------------------------------------------------------------------|

e|---------------------------------------------------------------------|
B|-6-6-------7~~-6-7-8-9-10-7------------------------------------------|
G|-----7-4--------------------8----------------------------------------|
D|---------7----~---------------9-8-7-6-7-6-7-6-7-6-7-6-7-6-7-6-7-6-7--|
A|---------------------------------------------------------------------|
E|---------------------------------------------------------------------|

e|---------------------|
B|---------------------|
G|-4--3br4--3--2---2~--|
D|---------------2-----|
A|---------------------|
E|---------------------|

e|-8p5-------------------------------------------------3/-7-0-6-0-5-0--|
B|-----6---------------5p3---------------------3-----5-----------------|
G|-------7-6-4h6p4p3-4-----4-----------------4---4h5-------------------|
D|-------------~-------------5-4-3-------2-5---------------------------|
A|---------------------------------5-2h3-------------------------------|
E|---------------------------------------------------------------------|

e|-3h4p3p2------------------------------0---------|
B|---------5-4--------------------------0---------|
G|-------------5-4-2--------------------1----7-7--|
D|-------------~-----5-4-2-1------------2----6-6--|
A|---------------------------3-1-2-----------x-x--|
E|-----------------------------------0----/7-7-6--|


************************************

| x   Dead note
| h   Hammer-on
| p   Pull-off
| br  Bend release
| /   Slide up
| ~   Vibrato

************************************
Suggest correction
Give kudos to tab author, rate the tab!
1 2 3 4 5
comments
print report bad tab
guest
You may want to rate the tab now too:
select rating
Wanna post a correction for this tab? Suggest correction