Oops, an error
Loading. Please wait.

Storm Tab

3,464 views 6 this week
no commentswrite comment
1 2 3 4 5
accurate
x 10
add to favorites
launch autoscroll
font size
0
reset
how to read this tab
guitar tuner
Autoscroll
slow
fast
+/-
esc
set tempo
stop
Help us to improve Ultimate-Guitar.com Take our survey!
×
Author
Difficulty
intermediate
-------------------------------------------------------------------------------
                                  Storm  -  Yoshida Brothers
-------------------------------------------------------------------------------
Tabbed by: Martin Messner
Email: BigBonsai@hotmail.de

Tuning: E-Standard

//////////////////////////////////////////////
//                                          //
//  RATING THIS TAB TAKES ABOUT 5 SECONDS   //
//  AND HELPS ME TO IMPROVE MY WORK         //
//                                          //
//////////////////////////////////////////////


Intro
e|---9--------------------|---|---7--------------------|
B|---/---10--9--7----9----|---|---/---10--9--7----9----|
G|---/----------/----/----|---|---/----------/----/----|
D|--------------/----/----|---|--------------/----/----|
A|------------------------|---|------------------------|
E|------------------------|---|------------------------|

Main Riff
e|-----4-4---4-4-------5-5---5-5---5---7-7---7-7---5---4-4---4-4---4---|
B|-----------------7---------------------------------------------------|
G|---6-----6-----6---6-----6-----6---6-----6-----6---6-----6-----6-----| x4
D|---------------------------------------------------------------------|
A|---------------------------------------------------------------------|
E|---------------------------------------------------------------------|

[Solo I]
e|---------4-4-4-3-3-3-2-2-2-0---0-------------------------------------|
B|---2-2-2---------------------2-----2-0-0-2---------------------------|
G|---------------------------------------------1-----------------------| x2
D|-----------------------------------------------4-2h4p2-1-------------|
A|---------------------------------------------------------2h4---------|
E|---------------------------------------------------------------------|

e|----------9-9-9-8-8-8-7-7-7-5----9-9-9-8-8-8-7-7-7-5-----|
B|------7-----------------------7----------------------7---|
G|--6-9--------------------(5-9)---------------------------|
D|---------------------------------------------------------|
A|---------------------------------------------------------|
E|---------------------------------------------------------|

e|----------------------------------------------------7----------------|
B|--------5-7-7-5--------5-7-7-5-------5-7-7-5--4--5-----5--4----------|
G|--4--6-----------4--6-----------4--6-------------------------4-------|
D|---------------------------------------------------------------------|
A|---------------------------------------------------------------------|
E|---------------------------------------------------------------------|

e|--------------------------------------------------------4-5-4--------|
B|--------5-7-7-5--------5-7-7-5-------5-7-7-5----4-5-7-5-------7-5-4--|
G|--4--6-----------4--6-----------4--6----------6----------------------|
D|---------------------------------------------------------------------|
A|---------------------------------------------------------------------|
E|---------------------------------------------------------------------|

[Main Riff]

[Solo II]
Bass-Intro

G|-------------------------------------------|
D|-------2--2-4h5--4-2------2--2-4h5--4--2---| x4 (but continues)
A|---4-4---4------------4-4---4--------------|
E|-------------------------------------------|



e|---9--9--9-7-9-|--9---7h9--7-----------------------|
B|---------------|----9--------9-7\5----7h8p7-5------|
G|---------------|-------------------(6)--------6-6--|
D|---------------|-----------------------------------|
A|---------------|-----------------------------------|
E|---------------|-----------------------------------|

Most of the Rest is improvised... so ill give you the minor pentatonic scale of C#


Lets pretend this is a guitar, with a fret board and stuff...

The "O"s mark playable Notes, the "X"s mark the places where the "C#" is seated. I advise 
start and end most of the parts of the solo on one of these notes.
e ||---|---|-X-|---|---|-O-|---|
B ||---|---|-O-|---|---|-O-|---|
G ||---|---|-O-|---|-0-|---|---|
D ||---|---|-O-|---|-X-|---|---|
A ||---|---|-O-|---|-O-|---|---|
E ||---|---|-X-|---|---|-O-|---|
      7.  8.  9. 10. 11. 12. 13.  Fret

Hope you enjoy it =)

Martin
Suggest correction
comments
print report bad tab
guest
You may want to rate the tab now too:
select rating
Wanna post a correction for this tab? Suggest correction