Oops, an error
Loading. Please wait.

Make-Up Shadow Bass Tab

7 views 1 this week
no commentswrite comment
1 2 3 4 5
3 more votes to show rating
add to favorites
launch autoscroll
font size
0
reset
guitar tuner
Autoscroll
slow
fast
+/-
esc
set tempo
stop
Help us to improve Ultimate-Guitar.com Take our survey!
×
Author
Difficulty
novice
Song : https://www.youtube.com/watch?v=xc7b5KoLc3g


[Intro]

G|-------------------|-------------------|-------------------|-------------------|
D|-------------------|-------------------|-------------------|-------------------|
A|--1-1-1-1-1-1-1-1--|--3-3-3-3-3-3-3-3--|-------------------|-------------------|
E|-------------------|-------------------|--1-1-1-1-1-1-1-1--|--1-1-1-1-1-1-1-1--|


G|-------------------|-------------------|-------------------|-----|---------|
D|-------------------|-------------------|-------------------|-----|------1--|
A|--1-1-1-1-1-1-1-1--|--3-3-3-3-3-3-3-3--|-------------------|--r--|--4------|
E|-------------------|-------------------|--1-1-1-1-1-1-1-1--|-----|---------|


[Verse 1]

G|-------------------|-------------------|-------------------|-------------------|
D|-------------------|-------------------|-------------------|-------------------|
A|-------------------|-------------------|-------------------|--1-1-1-1-1-1-1-1--|
E|--1-1-1-1-1-1-1-1--|--1-1-1-1-1-1-1-1--|--1-1-1-1-1-1-1-1--|-------------------|


G|-------------------|-------------------|-------------------|---------|
D|-------------------|-------------------|-------------------|------1--|
A|--1-1-1-1-1-1-1-1--|--1-1-1-1-1-1-1-1--|--3-3-3-3-3-3-3-3--|--4------|
E|-------------------|-------------------|-------------------|---------|


G|-------------------|-------------------|-------------------|-------------------|
D|-------------------|-------------------|-------------------|-------------------|
A|-------------------|-------------------|-------------------|--1-1-1-1-1-1-1-1--|
E|--1-1-1-1-1-1-1-1--|--1-1-1-1-1-1-1-1--|--1-1-1-1-1-1-1-1--|-------------------|


G|-------------------|-------------------|-------------------|----------------|
D|-------------------|-------------------|-------------------|----------------|
A|--1-1-1-1-1-1-1-1--|--1-1-1-1-1-1-1-1--|--3-3-3-3-3-3-3-3--|----------------|
E|-------------------|-------------------|-------------------|--1-1-1-1-1--3--|


[Verse 2]

G|-------------------|-------------------|-------------------|-------------------|
D|-------------------|-------------------|-------------------|-------------------|
A|-------------------|-------------------|-------------------|--3-3-3-3-3-3-3-3--|
E|--4-4-4-4-4-4-4-4--|--4-4-4-4-4-4-4-4--|--3-3-3-3-3-3-3-3--|-------------------|


G|-------------------|-------------------|-------------------|----------------|
D|-------------------|-------------------|--1-1-1-1-1-1-1----|----------------|
A|-------------------|--1-1-1-1-1-1-1-1--|----------------3--|--3--3-3-3-3-3--|
E|--1-1-1-1-1-1-1-1--|-------------------|-------------------|----------------|


G|-------------------|-------------------|-------------------|-------------------|
D|-------------------|-------------------|-------------------|-------------------|
A|-------------------|-------------------|--4-4-4-4-4-4-4-4--|--4-4-4-4-4-4-4-4--|
E|--2-2-2-2-2-2-2-2--|--2-2-2-2-2-2-2-2--|-------------------|-------------------|


G|-------------------|-------------------|-------------------|-------------------|---------------|
D|-------------------|-------------------|-------------------|-------------------|--------1------|
A|--2-2-2-2-2-2-2-2--|--4-4-4-4-4-4-4-4--|--2-2-2-2-2-2-2-2--|--4-4-4-4-4-4-4-4--|------------1--|
E|-------------------|-------------------|-------------------|-------------------|----2----------|


[Chorus]

G|-------------------|-------------------|-------------------|-------------------|
D|-------------------|-------------------|-------------------|-------------------|
A|-------------------|-------------------|-------------------|--1-1-1-1-1-1-1-1--|
E|--1-1-1-1-1-1-1-1--|--3-3-3-3-3-3-3-3--|--4-4-4-4-4-4-4-4--|-------------------|


G|-------------------|-------------------|-------------------|-------------------|
D|-------------------|-------------------|-------------------|-------------------|
A|-------------------|-------------------|-------------------|--1-1-1-1-1-1-1-1--|
E|--1-1-1-1-1-1-1-1--|--3-3-3-3-3-3-3-3--|--4-4-4-4-4-4-4-4--|-------------------|


G|----------------|----------------|
D|----------------|--1-------------|
A|--4-------------|----------------|
E|----------------|----------------|


[Bridge]

G|-------------------|-------------------|-------------------|-------------------|
D|-------------------|-------------------|-------------------|-------------------|
A|-------------------|-------------------|--1-1-1-1-1-1-1-1--|--3-3-3-3-3-3-3-3--|
E|--1-1-1-1-1-1-1-1--|--1-1-1-1-1-1-1-1--|-------------------|-------------------|


G|-------------------|-------------------|-------------------|-------------------|
D|-------------------|-------------------|-------------------|-------------------|
A|-------------------|-------------------|--1-1-1-1-1-1-1-1--|--3----------------|
E|--1-1-1-1-1-1-1-1--|--1-1-1-1-1-1-1-1--|-------------------|-------------------|


[Verse 3]

G|-------------------|-------------------|-------------------|-------------------|
D|-------------------|-------------------|-------------------|-------------------|
A|-------------------|-------------------|-------------------|--1-1-1-1-1-1-1-1--|
E|--1-1-1-1-1-1-1-1--|--1-1-1-1-1-1-1-1--|--1-1-1-1-1-1-1-1--|-------------------|


G|-------------------|-------------------|-------------------|---------|
D|-------------------|-------------------|-------------------|------1--|
A|--1-1-1-1-1-1-1-1--|--1-1-1-1-1-1-1-1--|--3-3-3-3-3-3-3-3--|--4------|
E|-------------------|-------------------|-------------------|---------|


G|-------------------|-------------------|-------------------|-------------------|
D|-------------------|-------------------|-------------------|-------------------|
A|-------------------|-------------------|-------------------|--1-1-1-1-1-1-1-1--|
E|--1-1-1-1-1-1-1-1--|--1-1-1-1-1-1-1-1--|--1-1-1-1-1-1-1-1--|-------------------|


G|-------------------|-------------------|-------------------|----------------|
D|-------------------|-------------------|-------------------|----------------|
A|--1-1-1-1-1-1-1-1--|--1-1-1-1-1-1-1-1--|--3-3-3-3-3-3-3-3--|----------------|
E|-------------------|-------------------|-------------------|--1-1-1-1-1--3--|


[Verse 4]

G|-------------------|-------------------|-------------------|-------------------|
D|-------------------|-------------------|-------------------|-------------------|
A|-------------------|-------------------|-------------------|--3-3-3-3-3-3-3-3--|
E|--4-4-4-4-4-4-4-4--|--4-4-4-4-4-4-4-4--|--3-3-3-3-3-3-3-3--|-------------------|


G|-------------------|-------------------|-------------------|----------------|
D|-------------------|-------------------|--1-1-1-1-1-1-1----|----------------|
A|-------------------|--1-1-1-1-1-1-1-1--|----------------3--|--3--3-3-3-3-3--|
E|--1-1-1-1-1-1-1-1--|-------------------|-------------------|----------------|


G|-------------------|-------------------|-------------------|-------------------|
D|-------------------|-------------------|-------------------|-------------------|
A|-------------------|-------------------|--4-4-4-4-4-4-4-4--|--4-4-4-4-4-4-4-4--|
E|--2-2-2-2-2-2-2-2--|--2-2-2-2-2-2-2-2--|-------------------|-------------------|


G|-------------------|-------------------|-------------------|-------------------|---------------|
D|-------------------|-------------------|-------------------|-------------------|--------1------|
A|--2-2-2-2-2-2-2-2--|--4-4-4-4-4-4-4-4--|--2-2-2-2-2-2-2-2--|--4-4-4-4-4-4-4-4--|------------1--|
E|-------------------|-------------------|-------------------|-------------------|----2----------|


[Chorus]

G|-------------------|-------------------|-------------------|-------------------| (x4)
D|-------------------|-------------------|-------------------|-------------------|
A|-------------------|-------------------|-------------------|--1-1-1-1-1-1-1-1--|
E|--1-1-1-1-1-1-1-1--|--3-3-3-3-3-3-3-3--|--4-4-4-4-4-4-4-4--|-------------------|


[Chorus End]

G|----------------|----------------|
D|----------------|--1--1----------|
A|--4-------------|----------------|
E|----------------|----------------|


[Bridge]

G|-------------------|-------------------|-------------------|-------------------| (x4)
D|-------------------|-------------------|-------------------|-------------------|
A|-------------------|-------------------|--1-1-1-1-1-1-1-1--|--3-3-3-3-3-3-3-3--|
E|--1-1-1-1-1-1-1-1--|--1-1-1-1-1-1-1-1--|-------------------|-------------------|


[Outro]

G|-------------------|-------------------|----------------|
D|-------------------|--1-1-1-1-1-1-1-1--|----------------|
A|--4-4-4-4-4-4-4-4--|-------------------|----------------|
E|-------------------|-------------------|--1-------------|



***********************

| r : rest

***********************

in regular sequence!
Suggest correction
Give kudos to tab author, rate the tab!
1 2 3 4 5
comments
print report bad tab
guest
You may want to rate the tab now too:
select rating
Wanna post a correction for this tab? Suggest correction