Oops, an error
Loading. Please wait.

Cream And The Crock chords

52 views 1 this week
no commentswrite comment
1 2 3 4 5
2 more votes to show rating
add to favorites
×
Save as Personal and add changes to this tab that will be seen only by you. Learn more ›
×
You can save this tab as Personal to edit and correct it or add notes. All changes will be seen only by you. Learn more »
launch autoscroll
font size
0
reset
transpose
0
reset
simplify chords
display chords
guitar tuner
edit
Autoscroll
slow
fast
+/-
esc
set tempo
stop
Author
Strumming
There is no strumming pattern for this song yet. and get +5 IQ

THE CREAM AND THE CROCK 

Chords used:

(PRECHORUS)
  C  C(b5th)  C(II)  Cm  
E---------------------
B-5--7--------8-----4-
G-0--0--------0-----0-
D-0--0--------0-----0-
G-5--5--------5-----5-
E---------------------

(CHORUS)
G  G/F#  Em  D  C  G/B  G/Bb  Am7
---------------------------------
12--10---8---7--5---3----2-----1-
0---0----0---0--0---0----0-----0-
0---0----X---0--0---0----0-----0-
12--11---9---7--5---4----3-----2-
---------------------------------

(Rusty lets it rock)
G  Em  F 
--------
---0---0
0--0---0
0--0---0
0--X---X
---0---1

VERSE RIFF
1      2     3     4     1     2      3      4
------------------------------------
-------------------------0----------
0----0-------------------0----------
0----0------------2------4----------
0----0-----2-3-4---------4----------
-------------------------0----------

PRECHORUS CHORDS
C  /  C(b5th)  /  C(II)  /  Cm

PRECHORUS GUITAR LINE 
    BU      BD

---------10-----------------
-10-(12)----(12)-10---8---8-
------------------------9---
----------------------------
----------------------------
----------------------------

(x4)

VERSE 1
       VERSE RIFF                       VERSE RIFF
Took a drag from something I don't even smoke.
      VERSE RIFF                              VERSE RIFF
And a line from something that some other guy wrote.
         VERSE RIFF                                           VERSE RIFF
Now it's red wine for headline, somebody's pulling favours by phone.
      VERSE RIFF                                   PRECHORUS
Is it really so bad or you just want some place to go?

VERSE 2
        VERSE RIFF                                VERSE RIFF
Give me noise and the sound of hearts breaking in songs.
          VERSE RIFF                                            VERSE RIFF
Give them profiles and a voice which shows which country you're from.
VERSE RIFF                     VERSE RIFF
Meanwhile, I was there thinking
   VERSE RIFF                                    PRECHORUS
Is it really that bad or did you just want me to go?



CHORUS
G               G/F#                        Em
Hey, before you leave us by the side of the road
          D                           C
I want to tell you 'bout the little I know
         G/B           G/Bb  Am7
It's the cream, it's a crock

VERSE 3
        VERSE RIFF                            VERSE RIFF
Pick it up and spill your guts to someone who knows
              VERSE RIFF                                             VERSE RIFF
I'll suck you up like a Kleenex and leave the mess in the back of my throat
VERSE RIFF                      VERSE RIFF
Meanwhile, I was there thinking
      VERSE RIFF                                     PRECHORUS
Is it really that bad or did you just want me to go?

CHORUS
G               G/F#                        Em
Hey, before you leave us by the side of the road,
          D                           C
I want to tell you 'bout the little I know
         G/B           G/Bb   
It's the cream, it's a crock
         Am7
Oh Rusty, let it rock!

BRIDGE
G Em / F G (x3)

Then;

-------------------------
-5--5--5--5--5--5--------
-0--0--0--0--0--0--------
-0--0--0--0--0--0--------
-5--5--5--5--5--5--4-2-1-
-------------------------

(x1)
3-3-------0-
3-3-------0-
0-0-------0-
0-0-------4-
0-0-------4-
3-3-------0-

(x4)

PRECHORUS

CHORUS
G               G/F#                        Em 
Hey, before you leave us by the side of the road
          D                          C
I want to tell you bout the little I know
         G/B           G/Bb   Am
It's the cream, it's a crock, yeah
G          G/F#                         Em
Hey, we're sitting in the middle of the road
          Dsus4                       Csus2
I want to tell you 'bout the little I know
         G/B           Gm/Bb
It's the cream, it's a crock
Am        
Oh let it rock!
----------------------
----------------------
0--0-----------0------
0--0-----------0------
0--0--2--4-2-1-0------
----------------------
Suggest correction
Creating personal tab
Creating personal tab
You can edit any tab online and save it as your Personal.

You can edit, replace or remove any tab part or add personal notes – all changes will be seen only by you.

Personal tabs can be accessed anytime from any device, even offline.
Learn more »
Give kudos to tab author, rate the tab!
1 2 3 4 5
comments
print report bad tab
guest
You may want to rate the tab now too:
select rating
Wanna post a correction for this tab? Suggest correction