Oops, an error
Loading. Please wait.

If We Cant Get It Together tab

82 views 1 this week
1 commentread comment
1 2 3 4 5
x 3
add to favorites
×
Save as Personal and add changes to this tab that will be seen only by you. Learn more ›
×
You can save this tab as Personal to edit and correct it or add notes. All changes will be seen only by you. Learn more »
launch autoscroll
font size
0
reset
how to read this tab
guitar tuner
edit
Autoscroll
slow
fast
+/-
esc
set tempo
stop
IF WE CAN'T GET IT TOGETHER
http://www.youami.net/tabs/ifwecant.txt

Transcribed by David Lane

Those weird Em chords

Em    Em(maj7)   Em7   Em(add6)
 0-------0--------0-------0
 0-------0--------0-------0
 0-------0--------0-------0
 2-------1--------0-------2
 2-------2--------2-------4
 0-------0--------0-------0

Capo 1st fret

    G                     Bm                            G
To get up the bond for an inner west flat he'd work for anybody if he 
       Bm
wasn't working for her dad.
     Am                  Esus4   E               Am            
She' practicing saying I do or I will 'cause she don't know how to tell 
               Esus4     E
him that she's going off the pill.
    G                                   Bm                      
Her curtains are for certain that he'll talk about her ass  
        G                          Bm
but she clings to his photo like a piece of broken glass.
   Am                    Esus4   E
We can't get it together today.
      Am                             Esus4            E
She's looking for his heart while he stares the other way.
     F                                 
He's dad is a nut, he's ex-girl is a slut.
    F
But he'll be yours forever if you just get it together.
      C                                                                  
If we can't get it together, if we can't get it together, 
      Cm
is it ever gonna be just you and me?
        G                     Bm                             
So they met on Tuesday at the town hall steps to get an 
G                        Bm
eight by ten photo and a wedding date set.
   Am                       Esus4 E               Am
We might as well do it next week     'cause we've met everybody that 
      Esus4      E
we're ever gonna meet.
     F                            
He's dad is a nut, he's ex-girl is a slut
    F
But he'll be yours forever if you just get it together.

      C                                                                  
If we can't get it together, if we can't get it together,
       Cm                             G
 is it ever gonna Be just you and me?
Em              Em(maj7)
Four seventy to Circular Quay.
   Em7                           Em(add6)
A present in your pocket for the TAB
      Am7                                                                 
If we can't get it together, if we can't get it together 
      D                                      
is it ever gonna be just you and me?

SOLO (relative to capo)

             H
--------------------------------------------
-----------------------------0----0---0----0
--------------------0-----0--4----4---2----0
--------------0--2-----2--------------------
----------0-2-------------------------------
-3------------------------------------------

(x2)

0--0---0--0--0---0---0--0---0
5--5---5--3--0---7---7--8---8
-----------------------------
-----------------------------
-----------------------------
-----------------------------

(x2)

         H                      BU               BD
----------------------------------------------------------
-------------------------------------15---------------------
------------12--14--12---14----(16)-------(16)---14---12------
14---12-14----------------------------------------------14
----------------------------------------------------------
----------------------------------------------------------

(x3)

---8---------8---------10--11--10--8----3
------8---------8-----------------------3
8--------8--------8---------------------0
----------------------------------------0
----------------------------------------2
----------------------------------------3

Em                     Em(maj7)                               
Would you settle for a mobile home a 
Em7                     Em(add6)
good record store and a public phone
      Am7                                                          
If we can't get it together, if we can't get it together

D  D  D  D     D 


            
            
Suggest correction
Creating personal tab
Creating personal tab
You can edit any tab online and save it as your Personal.

You can edit, replace or remove any tab part or add personal notes – all changes will be seen only by you.

Personal tabs can be accessed anytime from any device, even offline.
Learn more »
Give kudos to tab author, rate the tab!
1 2 3 4 5
comments
print report bad tab
1 comment total.
0 reply
mcstormy69 10 Sep 14, 2017 09:06 AM

Spot on, great tab of a great song

guest
You may want to rate the tab now too:
select rating
Wanna post a correction for this tab? Suggest correction