Oops, an error
Loading. Please wait.

Plans chords

43 views 3 this week
no commentswrite comment
1 2 3 4 5
2 more votes to show rating
add to favorites
×
Save as Personal and add changes to this tab that will be seen only by you. Learn more ›
×
You can save this tab as Personal to edit and correct it or add notes. All changes will be seen only by you. Learn more »
launch autoscroll
font size
0
reset
transpose
0
reset
simplify chords
display chords
guitar tuner
edit
Autoscroll
slow
fast
+/-
esc
set tempo
stop
Author
Strumming
There is no strumming pattern for this song yet. and get +5 IQ
PLANS 

INTRO
---------------------------------------|
--3--3--6----6--------3--3--6----8-----|
----------7----7--0---2-------7----7--0|
0---0-0----0----0---0---0-0----0----0--|
---------------------------------------|
---------------------------------------|

(x2)

VERSE 1

D                        A
 Brush your hair to some Eurodisco trash
F#m                       F
    Two prophelactics and forty-five dollars cash.
Em                       A
Corduroy jacket and some fifty buck shoes.
         Em                              A
That can lead like a lamp when they're a scrubbing up new.
D                 A
 Sunday best on a Friday night alright
     F#m                                F
I'll meet you at the corner beneath the Goodyear foot sign
Em                  A
Where all dates are made by mobile
     Em                           A
I'll send you a smoke signal just be there by nine.

CHORUS

     Em                   A
This smoke, I left it for you
                Em       A                    
To show Mum and Dad your new tattoo alright.
D   A/C#   Bm       F                 Em                       A
                 So they're my plans, how'd they fit with you?

VERSE 2
          D                               A
There's a streetlight for each night your heart hit the deck
     F#m                         F 
This drink says I love you, this drink says I couldn't care less
Em             A
  Kiss me so I know I'm alive
    Em                              A
The drinks taste crap but they keep coming til five.
D                             A
Numbers on the wall, I got my ears like a shell
    F#m                          F
The phone stinks of chips, cheap wine, mouthwash and gel
Em                       A
   C'mon we'll drink the last of the rent
         Em                                A
And I'll leave my number right down on the strap of your dress

CHORUS

         Em        A
And it's late, and she's Sue
      Em                         A 
Cos I read it on the back of her boyfriends neck alright.
D   A/C#   Bm      F                 Em 
                So they're my plans, how'd they fit with you?

REPEAT INTRO

SOLO 

   BU     BD                    BU     BU    BU
------------------------------------------------------------------|
10-----10---------------------------------------------------------|
9-(11)(11)-9-7--9-----9-9-----4-(6)--4-(6)--4(6)4--2----5--4-2----|
------------------------------------------------------4--------3-2|
------------------------------------------------------------------|
------------------------------------------------------------------|

 Em / A / Em / A 

    BU     BD                    BU     BU    BU
----------------------------------------------------------------------------|
10-----10----------------------17------17------17---------------------------|
9-(11)(11)-9-7--9-----9-9------16(18)--16(18)--16(18)--14----17--16-14------|
----------------------------------------------------------16-----------15-14|
----------------------------------------------------------------------------|
----------------------------------------------------------------------------|

 Em / A / Em / A

CHORUS

     Em       A
It's late and she's Sue
Em                    A
Show mum and dad your new tattoo alright!
D   A/C#    Bm     F                    Em                         A
                   They're my plans but how'd they fit with you?
      F                 Em                      A
Yeah, I had a plan, but how'd it fit with you?
F                     Em                       A
That's all I got, but how'd it fit with you?
F       Em      D
Yeah    yeah    yeah
Suggest correction
Creating personal tab
Creating personal tab
You can edit any tab online and save it as your Personal.

You can edit, replace or remove any tab part or add personal notes – all changes will be seen only by you.

Personal tabs can be accessed anytime from any device, even offline.
Learn more »
Give kudos to tab author, rate the tab!
1 2 3 4 5
comments
print report bad tab
guest
You may want to rate the tab now too:
select rating
Wanna post a correction for this tab? Suggest correction