Oops, an error
Loading. Please wait.

Id Rather Be Sleeping tab

25 views 3 this week
no commentswrite comment
1 2 3 4 5
3 more votes to show rating
add to favorites
×
Save as Personal and add changes to this tab that will be seen only by you. Learn more ›
×
You can save this tab as Personal to edit and correct it or add notes. All changes will be seen only by you. Learn more »
launch autoscroll
font size
0
reset
how to read this tab
guitar tuner
edit
Autoscroll
slow
fast
+/-
esc
set tempo
stop
I think I'm way over my head making this tab, but here we go anyways.
Just remember to tune it to Drop D.

[Intro]
E|---------------------------------------|
B|---------------------------------------|
G|---------------------------------------|
D|---------------------------------------|
A|---------------------------------------|
D|--4-4-4-8--13-13-13-11--8-8-8-9-8-8-8--|

E|---------------------------------------|
B|---------------------------------------|
G|---------------------------------------|
D|--4-4-4-8--13-13-13-11--8-8-8-9-8-8-8--| x2
A|--4-4-4-8--13-13-13-11--8-8-8-9-8-8-8--|
D|--4-4-4-8--13-13-13-11--8-8-8-9-8-8-8--|

[Verse]
E|---------------------------------------------------------------------------|
B|---------------------------------------------------------------------------|
G|---------------------------------------------------------------------------|
D|--8-x-x-8-x-x-8-x-8-x-x-8-x-x-8-x---13-x-x-13-x-x-13-x-13-x-x-13-x-x-13-x--| x2
A|--8-x-x-8-x-x-8-x-8-x-x-8-x-x-8-x---13-x-x-13-x-x-13-x-13-x-x-13-x-x-13-x--|
D|--8-x-x-8-x-x-8-x-8-x-x-8-x-x-8-x---13-x-x-13-x-x-13-x-13-x-x-13-x-x-13-x--|

There's a place we can go, we can go
Where every scratcher's a winner
It's ice cream for dinner
Cause as I recall
Life's not quite been a ball
So we'll be heading upstairs
And sleeping out of these cares

E|--------------------------------------------------------------------------------|
B|--------------------------------------------------------------------------------|
G|--------------------------------------------------------------------------------|
D|--9--9--9---8-8-9-11--8-9-11--8-9-11--8-9-11--8-8-9-11--8-9-11--8-9-11--8-9-11--|
A|--9--9--9---8-8-9-11--8-9-11--8-9-11--8-9-11--8-8-9-11--8-9-11--8-9-11--8-9-11--|
D|--9--9--9---8-8-9-11--8-9-11--8-9-11--8-9-11--8-8-9-11--8-9-11--8-9-11--8-9-11--|

Everything I've ever wanted is just as possible
As growing up and feeling haunted
By the missteps that I've had

E|------------------------------------------------------------------------|
B|------------------------------------------------------------------------|
G|------------------------------------------------------------------------|
D|--8-8-6--8-8-8-6--8-8-8-6--8-8-8-6--8-8-8-6--8-8-8-6--8-8-8-6--8--6--4--|
A|--8-8-6--8-8-8-6--8-8-8-6--8-8-8-6--8-8-8-6--8-8-8-6--8-8-8-6--8--6--4--|
D|--8-8-6--8-8-8-6--8-8-8-6--8-8-8-6--8-8-8-6--8-8-8-6--8-8-8-6--8--6--4--|

Give up, give in with no delay
Do you want to find some peace today?

[Pre-Chorus]
E|--6-6-6-6--6-6-6-6--5-5-5-5--5-5-5-5---------------------|
B|---------------------------------------------------------|
G|---------------------------------------------------------|
D|--------------------------------------8-8-8-8-8-8--6--4--|
A|--------------------------------------8-8-8-8-8-8--6--4--|
D|--------------------------------------8-8-8-8-8-8--6--4--|
Yeah                                   yeah!

[Chorus]
E|----------------------------------------------------------------------------------|
B|----------------------------------------------------------------------------------|
G|----------------------------------------------------------------------------------|
D|--4-4-4-4-4-4-4-4--8-8-8-8-8-8-8-8--13-13-13-13-13-13-13-13--9-9-9-9--11-11--9-9--| x2
A|--4-4-4-4-4-4-4-4--8-8-8-8-8-8-8-8--13-13-13-13-13-13-13-13--9-9-9-9--11-11--9-9--|
D|--4-4-4-4-4-4-4-4--8-8-8-8-8-8-8-8--13-13-13-13-13-13-13-13--9-9-9-9--11-11--9-9--|

Push the dirt on top of me
I'll be shooting shit with Mephistopheles
I could use a break from all this misery
I can think of no place I would rather be
In my dreams

 [INTRO IS SLIGHTLY CHANGED]
E|-------------------------------------|
B|-------------------------------------|
G|-------------------------------------|
D|--4-4-4-8--13-13-13-11--8-8-9-8-8-8--|
A|--4-4-4-8--13-13-13-11--8-8-9-8-8-8--|
D|--4-4-4-8--13-13-13-11--8-8-9-8-8-8--|

[Verse]
E|---------------------------------------------------------------------------|
B|---------------------------------------------------------------------------|
G|---------------------------------------------------------------------------|
D|--8-x-x-8-x-x-8-x-8-x-x-8-x-x-8-x---13-x-x-13-x-x-13-x-13-x-x-13-x-x-13-x--| x2
A|--8-x-x-8-x-x-8-x-8-x-x-8-x-x-8-x---13-x-x-13-x-x-13-x-13-x-x-13-x-x-13-x--|
D|--8-x-x-8-x-x-8-x-8-x-x-8-x-x-8-x---13-x-x-13-x-x-13-x-13-x-x-13-x-x-13-x--|

Put on a face for the show, they won't know
That you've been kept quite awake
By life's yard full of rakes
It's been a knock on the face
every step, every pace
So I'll be heading with haste
Where every fear is replaced by

E|--------------------------------------------------------------------------------|
B|--------------------------------------------------------------------------------|
G|--------------------------------------------------------------------------------|
D|--9--9--9---8-8-9-11--8-9-11--8-9-11--8-9-11--8-8-9-11--8-9-11--8-9-11--8-9-11--|
A|--9--9--9---8-8-9-11--8-9-11--8-9-11--8-9-11--8-8-9-11--8-9-11--8-9-11--8-9-11--|
D|--9--9--9---8-8-9-11--8-9-11--8-9-11--8-9-11--8-8-9-11--8-9-11--8-9-11--8-9-11--|

A slimmer waist and broader shoulders
Did I mention I can fly?
And I never felt so devalued
Never had to wonder why

E|------------------------------------------------------------------------|
B|------------------------------------------------------------------------|
G|------------------------------------------------------------------------|
D|--8-8-6--8-8-8-6--8-8-8-6--8-8-8-6--8-8-8-6--8-8-8-6--8-8-8-6--8--6--4--|
A|--8-8-6--8-8-8-6--8-8-8-6--8-8-8-6--8-8-8-6--8-8-8-6--8-8-8-6--8--6--4--|
D|--8-8-6--8-8-8-6--8-8-8-6--8-8-8-6--8-8-8-6--8-8-8-6--8-8-8-6--8--6--4--|

I had dreams like this, I hated
But it made me who I am so I'll take it
Yeah, yeah!

[Chorus]
E|----------------------------------------------------------------------------------|
B|----------------------------------------------------------------------------------|
G|----------------------------------------------------------------------------------|
D|--4-4-4-4-4-4-4-4--8-8-8-8-8-8-8-8--13-13-13-13-13-13-13-13--9-9-9-9--11-11--9-9--| x2
A|--4-4-4-4-4-4-4-4--8-8-8-8-8-8-8-8--13-13-13-13-13-13-13-13--9-9-9-9--11-11--9-9--|
D|--4-4-4-4-4-4-4-4--8-8-8-8-8-8-8-8--13-13-13-13-13-13-13-13--9-9-9-9--11-11--9-9--|

Push the dirt on top of me
I'll be shooting shit with Mephistopheles
I could use a break from all this misery
I can think of no place I would rather be
In my dreams

[Bridge]
E|---------------------------------------------------------------|
B|---------------------------------------------------------------|
G|---------------------------------------------------------------|
D|------------------------------------1-----1-----1-----1-----1--| x 3
A|----1-4---1-4---1-4---1-4---1-4---2-----2-----2-----2-----2----|
D|--4-----4-----4-----4-----4-----4-----4-----4-----4-----4------|

Down down down down down [x7]
Yeah!

[Chorus]
E|----------------------------------------------------------------------------------|
B|----------------------------------------------------------------------------------|
G|----------------------------------------------------------------------------------|
D|--4-4-4-4-4-4-4-4--8-8-8-8-8-8-8-8--13-13-13-13-13-13-13-13--9-9-9-9--11-11--9-9--| x4
A|--4-4-4-4-4-4-4-4--8-8-8-8-8-8-8-8--13-13-13-13-13-13-13-13--9-9-9-9--11-11--9-9--|
D|--4-4-4-4-4-4-4-4--8-8-8-8-8-8-8-8--13-13-13-13-13-13-13-13--9-9-9-9--11-11--9-9--|

Push the dirt on top of me
I'll be shooting shit with Mephistopheles
I could use a break from all this misery
I can think of no place I would rather be
In my dreams
Push the dirt on top of me
I'll be shooting shit with Mephistopheles
I could use a break from all this misery
I can think of no place I would rather be
In my dreams

P.S. Wish I could go see these guys live before they split up. :(

************************************

| x  Dead note

************************************
Suggest correction
Creating personal tab
Creating personal tab
You can edit any tab online and save it as your Personal.

You can edit, replace or remove any tab part or add personal notes – all changes will be seen only by you.

Personal tabs can be accessed anytime from any device, even offline.
Learn more »
Give kudos to tab author, rate the tab!
1 2 3 4 5
comments
print report bad tab
guest
You may want to rate the tab now too:
select rating
Wanna post a correction for this tab? Suggest correction