Oops, an error
Loading. Please wait.

Always Attract chords

version 2
version 2

Whole song

Interactive

11,008 views 1 this week
no commentswrite comment
1 2 3 4 5
3 more votes to show rating
add to favorites
×
Save as Personal and add changes to this tab that will be seen only by you. Learn more ›
×
You can save this tab as Personal to edit and correct it or add notes. All changes will be seen only by you. Learn more »
launch autoscroll
font size
0
reset
transpose
0
reset
simplify chords
display chords
guitar tuner
edit
Autoscroll
slow
fast
+/-
esc
set tempo
stop
Strumming
There is no strumming pattern for this song yet. and get +5 IQ
This is my version of always attract i think it's an easier one to play but still true 
the real song !

I used a Drop D tuning but it's not necessary
if you use the Drop D tuning please do a G this way or without streaming the last chord 
since it's a drog D it will sounds weird )


  G
--3--
--3--
--4--
--5--
--5--
--5--

If you don't want to tune your guitar go to the end to see how you should play it :):)


CAPO 5

Intro
|-----------------2---2---|-----------------2---2---|
|---3---2---3------3---3--|---3---2---3------3---3--|
|--2--2---2---2-----2---2-|--2--2---2---2-----2---2-|
|-------0---0----0--------|-----0---0----0----------|
|-0-----------------------|-0-----------------------|
|-------------------------|-------------------------|


|-------------------------|------------------------|
|----3-----2-----3----2---|----3-----2-----3----2--|
|-------------------------|------------------------|
|-------------------------|------------------------|
|2-2---2-2---2-2---2-2----|4-4---4-4---4-4---4-4---|
|-------------------------|------------------------|

Verse 1 (If it hurts this much ...until a month to late
|-----------------2---2---|-----------------2---2---|
|---3---2---3------3---3--|---3---2---3------3---3--|
|--2--2---2---2-----2---2-|--2--2---2---2-----2---2-|
|-------0---0----0--------|-----0---0----0----------|
|-0-----------------------|-0-----------------------|
|-------------------------|-------------------------|


|-------------------------|------------------------|
|----3-----2-----3----2---|----3-----2-----3----2--|
|-------------------------|------------------------|
|-------------------------|------------------------|
|2-2---2-2---2-2---2-2----|4-4---4-4---4-4---4-4---|
|-------------------------|------------------------|


Or

D
If it hurts this much,
                   Bm
Then it must be love,
                 A
And it's a lottery,
                            G
I can't wait to draw your name.
                         D
Oh i'm trying to get to you,
                       Bm
But time isn't on my side.
                               A
If the truth's the worst I can do,
                            G
then I guess that I have lied

D                A
   Keeping me awake,
                               Bm
It's been like this now for days.
                    G
My heart is out at sea,
                        G (or D)
My head all over the place.
                     A
I'm losing sense of time,
                           Bm
And everything tastes the same.
                   G
I'll be home in a day,
                           D
I fear thats a month too late.

D           A Bm
That night I slept,
D                A   Bm G
On your side of the bed so,
                           A
It was ready when you got home.
D            A      Bm  D       A   Bm
We're like noughts and crosses in that,
G             A              D
Opposites always attract.


Verse 2 (Same as verse 1)

You've taken me to the top,
And let me fall back south.
You've had me at the top of the pile,
And then had me kissing the ground.
We've heard and seen it all,
No one's talked us out.
The problems that have come,
Haven't yet torn us down.

Am i keeping you awake? If i am then just say.
You can make your own decisions; you can make your own mistakes.
I'll live and let die all the promises you made,
But if you lie another time, it'll be a lie that's too late.

That night I slept,
On your side of the bed so,
It was ready when you got home.
We're like noughts and crosses in that,
Opposites always attract.

Bridge (with capo5) tuning is important here
(before and during the beggining of " Do you always have your ways....")

|----------------------|
|----------------------|
|------------------2---|
|----------------------| x2
|-5-5-5-5-5-5-5-5----5-|
|-7-7-7-7-7-7-7-7----7-|

|----------------------|
|----------------------|
|------------------2---|
|----------------------| x2
|-4-4-4-4-4-4-4-4----4-|
|-7-7-7-7-7-7-7-7----7-|

|----------------------|
|----------------------|
|------------------2---|
|----------------------| x2
|-2-2-2-2-2-2-2-2----2-|
|-5-5-5-5-5-5-5-5----5-|

|----------------------|
|----------------------|
|------------------2---|
|----------------------| x2
|-0-0-0-0-0-0-0-0----0-|
|-0-0-0-0-0-0-0-0----0-|

D                     A
You always have your way,
                                  Bm
For now it's too soon for you to say,
                       G (or D)
Will we be always, always?


OPTION WITH NORMAL TUNING (for lazy people who don't won't to tune their guitar :p)

just play the same chords as it says without the special G thing just do a normal one

for the bridge part, just get off your capo and play this

|------------------------------------------------------------------------|
|---------------3--------------------------------------------------------| and it goes on with
|------------------------------------------------------------------------|
|-5-5-5-5-5-5-5---5--0----|                  D|-4-| then D|-2------------| and
|-5-5-5-5-5-5-5---5-------|                  A|-5-|      A|-3-|    A|-5--|
|-------------------------|                                        E|-3--|


G                     D (5 fret)
You always have your way,
                                  Cadd9
For now it's too soon for you to say,
                       G
Will we be always, always
Suggest correction
Creating personal tab
Creating personal tab
You can edit any tab online and save it as your Personal.

You can edit, replace or remove any tab part or add personal notes – all changes will be seen only by you.

Personal tabs can be accessed anytime from any device, even offline.
Learn more »
Give kudos to tab author, rate the tab!
1 2 3 4 5
comments
print report bad tab
guest
You may want to rate the tab now too:
select rating
Wanna post a correction for this tab? Suggest correction