Oops, an error
Loading. Please wait.

Always Attract tab

version 2
version 2

Interactive

163,189 views 21 this week
15 commentsread comments
1 2 3 4 5
x 65
add to favorites
×
Save as Personal and add changes to this tab that will be seen only by you. Learn more ›
×
You can save this tab as Personal to edit and correct it or add notes. All changes will be seen only by you. Learn more »
launch autoscroll
font size
0
reset
how to read this tab
guitar tuner
edit
Autoscroll
slow
fast
+/-
esc
set tempo
stop
Author
________________________________________

You Me At Six - Always Attract
________________________________________

tabbed by Captain Endor
(lateryser@hotmail.de)

I'm sure that I worked it out pretty correct, but If you have any suggestions, lemme know.

Tuning: Standard
-----------------------

[Intro]
e|-----3-----2-----3-----7-----7---|-----3-----2-----3-----7-----7---|
B|-------------------------8-----8-|-------------------------8-------|
G|---0---0-----0-----0-------0-----|---0---0-----0-----0-------0---0-|
D|-0-------0-----0-----0-----------|-0-------0-----0-----0-----------|
A|---------------------------------|---------------------------------|
E|---------------------------------|---------------------------------|

e|---------------------------------|---------------------------------|
B|-----8-----7-----8-----7-----8---|-----8-----7-----8-----7-----8~--|
G|---------------------------------|---------------------------------|
D|---------------------------------|---------------------------------|
A|-7-7---7-7---7-7---7-7---7-7---7-|-9-9---9-9---9-9---9-9---9-9-----|
E|---------------------------------|---------------------------------|

[VERSE] x2 (same as intro, just the beginning changes a bit)
e|-----3p2---2-----3-----7-----7---|-----3-----2-----3-----7-----7---|
B|-------------------------8-----8-|-------------------------8-------|
G|---0---------0-----0-------0-----|---0---0-----0-----0-------0---0-|
D|-0-------0-----0-----0-----------|-0-------0-----0-----0-----------|
A|---------------------------------|---------------------------------|
E|---------------------------------|---------------------------------|

e|---------------------------------|---------------------------------|
B|-----8-----7-----8-----7-----8---|-----8-----7-----8-----7-----8~--|
G|---------------------------------|---------------------------------|
D|---------------------------------|---------------------------------|
A|-7-7---7-7---7-7---7-7---7-7---7-|-9-9---9-9---9-9---9-9---9-9-----|
E|---------------------------------|---------------------------------|

[PRE-CHORUS] (00:41)
e|---------------------------------|---------------------------------|
B|-----5-----5-----5-----5-----5---|-----7-----7-----7-----7-----7---|
G|---------------------------------|---------------------------------|
D|---------------------------------|---------------------------------|
A|-3-3---3-3---3-3---3-3---3-3---3-|-5-5---5-5---5-5---5-5---5-5---5-|
E|---------------------------------|---------------------------------|

e|----------------------------------|-----------------------------------|
B|-----7-----8-----10------8----7---|-----12-----10-----8-----7-----8~--|
G|----------------------------------|-----------------------------------|
D|----------------------------------|-----------------------------------|
A|-7-7---7-7---7-7----7-7---7-7---7-|-9-9----9-9----9-9---9-9---9-9-----|
E|----------------------------------|-----------------------------------|

e|---------------------------------|---------------------------------|
B|-----5-----5-----5-----5-----5---|-----7-----7-----7-----7-----7---|
G|---------------------------------|---------------------------------|
D|---------------------------------|---------------------------------|
A|-3-3---3-3---3-3---3-3---3-3---3-|-5-5---5-5---5-5---5-5---5-5---5-|
E|---------------------------------|---------------------------------|

e|----------------------------------|--------------------------------------|
B|-----7-----8-----10------8----7---|-----12-----12-----12-----12-----12~--|
G|----------------------------------|--------------------------------------|
D|----------------------------------|--------------------------------------|
A|-7-7---7-7---7-7----7-7---7-7---7-|-9-9----9-9----9-9----9-9----9-9------|
E|----------------------------------|--------------------------------------|

[CHORUS] (3/4 here!)
Strum all the way trough, the single notes
I wrote down are just the ones you can hear 
more clearly, but not the only ones ringing!
e|------------------------|----------------------|
B|-----3--0---------7--8--|-----3p0-0------7--8--|
G|------------------------|----------------------|
D|------------------------|----------------------|
A|------------------------|----------------------|
E|--3------------7--------|--3----------7--------|

e|--3---3-3-3-3-3---3-3-3-|------3-3-3-0---0-0-0-|
B|--3---3-3-3-3-3---3-3-3-|------3-3-3-0---0-0-0-|
G|--0---0-0-0-0-0---0-0-0-|------0-0-0-0---0-0-0-|
D|--2---2-2-2-2-2---2-2-2-|------0-0-0-0---0-0-0-|
A|--3---3-3-3-3-3---3-3-3-|------2-2-2-2---2-2-2-|
E|------------------------|--3---3-3-3-3---3-3-3-|

e|------------------------|----------------------|
B|-----3--0---------7--8--|-----3p0-0------7--8--|
G|------------------------|----------------------|
D|------------------------|----------------------|
A|------------------------|----------------------|
E|--3------------7--------|--3----------7--------|

e|------3-3-3-3-3---3-3-3-|--3---3-3-3-3---3-3-3-|
B|--3---3-3-3-3-3---3-3-3-|--3---3-3-3-3---3-3-3-|
G|--0---0-0-0-0-0---0-0-0-|--0---0-0-0-0---0-0-0-|
D|--2---2-2-2-2-2---2-2-2-|--0---0-0-0-0---0-0-0-|
A|--3---3-3-3-3-3---3-3-3-|--2---2-2-2-2---2-2-2-|
E|------------------------|--3---3-3-3-3---3-3-3-|

[VERSE] x2 (same as intro, just the beginning changes a bit)
e|-----3p2---2-----3-----7-----7---|-----3-----2-----3-----7-----7---|
B|-------------------------8-----8-|-------------------------8-------|
G|---0---------0-----0-------0-----|---0---0-----0-----0-------0---0-|
D|-0-------0-----0-----0-----------|-0-------0-----0-----0-----------|
A|---------------------------------|---------------------------------|
E|---------------------------------|---------------------------------|

e|---------------------------------|---------------------------------|
B|-----8-----7-----8-----7-----8---|-----8-----7-----8-----7-----8~--|
G|---------------------------------|---------------------------------|
D|---------------------------------|---------------------------------|
A|-7-7---7-7---7-7---7-7---7-7---7-|-9-9---9-9---9-9---9-9---9-9-----|
E|---------------------------------|---------------------------------|

[PRE-CHORUS] (00:41)
e|---------------------------------|---------------------------------|
B|-----5-----5-----5-----5-----5---|-----7-----7-----7-----7-----7---|
G|---------------------------------|---------------------------------|
D|---------------------------------|---------------------------------|
A|-3-3---3-3---3-3---3-3---3-3---3-|-5-5---5-5---5-5---5-5---5-5---5-|
E|---------------------------------|---------------------------------|

e|----------------------------------|-----------------------------------|
B|-----7-----8-----10------8----7---|-----12-----10-----8-----7-----8~--|
G|----------------------------------|-----------------------------------|
D|----------------------------------|-----------------------------------|
A|-7-7---7-7---7-7----7-7---7-7---7-|-9-9----9-9----9-9---9-9---9-9-----|
E|----------------------------------|-----------------------------------|

e|---------------------------------|---------------------------------|
B|-----5-----5-----5-----5-----5---|-----7-----7-----7-----7-----7---|
G|---------------------------------|---------------------------------|
D|---------------------------------|---------------------------------|
A|-3-3---3-3---3-3---3-3---3-3---3-|-5-5---5-5---5-5---5-5---5-5---5-|
E|---------------------------------|---------------------------------|

e|----------------------------------|--------------------------------------|
B|-----7-----8-----10------8----7---|-----12-----12-----12-----12-----12~--|
G|----------------------------------|--------------------------------------|
D|----------------------------------|--------------------------------------|
A|-7-7---7-7---7-7----7-7---7-7---7-|-9-9----9-9----9-9----9-9----9-9------|
E|----------------------------------|--------------------------------------|

[CHORUS] (3/4 here!)
Strum all the way trough, the single notes
I wrote down are just the ones you can hear 
more clearly, but not the only ones ringing!
e|------------------------|----------------------|
B|-----3--0---------7--8--|-----3p0-0------7--8--|
G|------------------------|----------------------|
D|------------------------|----------------------|
A|------------------------|----------------------|
E|--3------------7--------|--3----------7--------|

e|--3---3-3-3-3-3---3-3-3-|------3-3-3-0---0-0-0-|
B|--3---3-3-3-3-3---3-3-3-|------3-3-3-0---0-0-0-|
G|--0---0-0-0-0-0---0-0-0-|------0-0-0-0---0-0-0-|
D|--2---2-2-2-2-2---2-2-2-|------0-0-0-0---0-0-0-|
A|--3---3-3-3-3-3---3-3-3-|------2-2-2-2---2-2-2-|
E|------------------------|--3---3-3-3-3---3-3-3-|

e|------------------------|----------------------|
B|-----3--0---------7--8--|-----3p0-0------7--8--|
G|------------------------|----------------------|
D|------------------------|----------------------|
A|------------------------|----------------------|
E|--3------------7--------|--3----------7--------|

e|------3-3-3-3-3---3-3-3-|--3---3-3-3-3---3-3-3-|
B|--3---3-3-3-3-3---3-3-3-|--3---3-3-3-3---3-3-3-|
G|--0---0-0-0-0-0---0-0-0-|--0---0-0-0-0---0-0-0-|
D|--2---2-2-2-2-2---2-2-2-|--0---0-0-0-0---0-0-0-|
A|--3---3-3-3-3-3---3-3-3-|--2---2-2-2-2---2-2-2-|
E|------------------------|--3---3-3-3-3---3-3-3-|

 end on
e|------------------------|
B|--3~--------------------|
G|--0~--------------------|
D|--2~--------------------|
A|--3~--------------------|
E|------------------------|

--- note: --------

I didn't work out the second part of the song,
because I think up to here you can perfectly
play it alone, but if you go on it wouldn't
sound very exciting without the drums, 2nd guitars
and strings.

If you wanna work it out anyway, it's basically:

e|---------------------------------------|
B|---------------------------------------|
G|-0-0-...-------------------------------|
D|-------------0-0-...-------------------|
A|---------------------3-3-...-----------|
E|------------------------------3-3-.....| (all palm muted)

and some stuff like

e|--------|
B|--0h3---|
G|--------|
D|--------|
A|--------|
E|--------|

inbetween, but I didn't really spend time on this.

As I said, If you wanna play the song for yourself
then I think you're well off with the first part.

---------------------

Well, guess thats it. enjoy!

Cheers,
the captain

            
            
Suggest correction
Creating personal tab
Creating personal tab
You can edit any tab online and save it as your Personal.

You can edit, replace or remove any tab part or add personal notes – all changes will be seen only by you.

Personal tabs can be accessed anytime from any device, even offline.
Learn more »
comments
print report bad tab
15 comments total. Showing first comments.
+14 reply
hellodavo 10 Apr 07, 2009 05:29 AM

Instead of:
|-----3-----2-----3-----7-----7---|-----3-----2-----3-----7-----7---|
|-------------------------8-----8-|-------------------------8-------|
|---0---0-----0-----0-------0-----|---0---0-----0-----0-------0---0-|
|-0-------0-----0-----0-----------|-0-------0-----0-----0-----------|
|---------------------------------|---------------------------------|
|---------------------------------|---------------------------------|

It is:
|-----------------------7-----7---|-----------------------7-----7---|
|-----8-----7-----8-------8-----8-|-----8-----7-----8-------8-------|
|---0---0-----0-----0-------0-----|---0---0-----0-----0-------0---0-|
|-0-------0-----0-----0-----------|-0-------0-----0-----0-----------|
|---------------------------------|---------------------------------|
|---------------------------------|---------------------------------|

Therefore still being the same thing, though much easier to play requiring less movement. :)

+3 reply
Sheen247 10 May 11, 2009 12:06 PM

I think i've tabbed out the part where there is only the guitar.
It sounds correct to me :]

|------------------|------------------|
|----------------3-|----------------3-|
|-0-0-0-0-0-0-0-0--|-0-0-0-0-0-0-0-0--|
|------------------|------------------|
|------------------|------------------|
|------------------|------------------|
. . . . . . . . . . . . . .

|------------------|------------------|
|----------------3-|------------------|
|---------------0--|----------------0-|
|-0-0-0-0-0-0-0----|-0-0-0-0-0-0-0-0--|
|------------------|------------------|
|------------------|------------------|
. . . . . . . . . . . . . .

|------------------|------------------|
|----------------3-|------------------|
|---------------0--|----------------0-|
|------------------|---------------0--|
|-3-3-3-3-3-3-3----|-3-3-3-3-3-3-3----|
|------------------|------------------|
. . . . . . . . . . . . . .

|------------------|------------------|
|----------------3-|------------------|
|---------------0--|------------------|
|------------------|------------------|
|------------------|------------------|
|-3-3-3-3-3-3-3----|-3-3-3-3-3-3-3-3--|
. . . . . . . . . . . . . . . x3

And "hellodevo" is right, his way is easier to play (Y)

Apart from that, absolutley PERFECT tab :}
I love this song and you've just helped me loads :D
5 STARS!
Just update it with these and finish it off and this will be one for the books ;]

+2 reply
Captain:Endor 80 May 14, 2009 09:30 AM

Thanks guys!:)

@Davo, yes its actually a lotta easier; dont know why I didnt come up with this myself. it really makes sense^^ But I've come to enjoy playing it with the little slide you have to do in my version:P

guest
You may want to rate the tab now too:
select rating
Wanna post a correction for this tab? Suggest correction