Oops, an error
Loading. Please wait.

Bite My Tongue Tab

version 5
version 5

Whole song

Interactive

19 views 3 this week
no commentswrite comment
1 2 3 4 5
3 more votes to show rating
add to favorites
launch autoscroll
font size
0
reset
how to read this tab
guitar tuner
Autoscroll
slow
fast
+/-
esc
set tempo
stop
Help us to improve Ultimate-Guitar.com Take our survey!
×
Author
Difficulty
Tuning
novice
D A D G B E
About this tab version
Includes all riffs for both rhythm and lead guitar as well as the timings of how the guitars compare to each other. Was this info helpful? Yes No
Guitar 1 (rhythm) is the top one and Guitar 2 (lead)is the bottom one.

[Intro/First Verse]

Guitar 1
e|---------------------------------------------------------------------------|
B|---------------------------------------------------------------------------|
G|---------------------------------------------------------------------------|
D|-9-9-9-9-9-9-9-9-7-7-7-7--7--7--7--7--9-9-9-9-9-9-9-9-7-7-7-7--7--7--7--7--|
A|-7-7-7-7-7-7-7-7-9-9-9-10-10-10-10-10-7-7-7-7-7-7-7-7-9-9-9-10-10-10-10-10-|
D|---------------------------------------------------------------------------|
 |   * * * * * * * * * * *  *  *  *  *  * * * * * * * * * * * *  *  *  *  *  |
 |                                                                           |
Guitar 2                                                                     |
e|---------------------------------------------------------------------------|
B|---------------------------------------------------------------------------|
G|---------------------------------------------------------------------------|
D|---------------------------------------------------------------------------|
A|---------------------------------------------------------------------------|
D|---------------------------------------------------------------------------|

Guitar 1
e|---------------------------------------------------------------------------|
B|---------------------------------------------------------------------------|
G|---------------------------------------------------------------------------|
D|---------------------------------------------------------------------------|
A|-10-10-10-10-10-10-10-10-7-7-7-7-7-7-7-7-10-10-10-10-10-10-10-10-7-7-7-7-7-|
D|-10-10-10-10-10-10-10-10-7-7-7-7-7-7-7-7-10-10-10-10-10-10-10-10-7-7-7-7-7-|
 | *  *  *  *  *  *  *  *  * * * * * * * * *  *  *  *  *  *  *  *  * * * * * |   
 |                                                                           |
Guitar 2                                                                     |
e|---------------------------------------------------------------------------|
B|---------------------------------------------------------------------------|
G|---------------------------------------------------------------------------|
D|---------------------------------------------------------------------------|
A|---------------------------------------------------------------------------|
D|---------------------------------------------------------------------------|

Guitar 1
e|---------------------------------------------------------------------------|
B|---------------------------------------------------------------------------|
G|-7-7-7---------------------------------------------------------------------|
D|-7-7-7-9-9-9-9-9-9-9-9-7-7-7-7--7--7--7--7--9-9-9-9-9-9-9-9-7-7-7-7--7--7--|
A|-5-5-5-7-7-7-7-7-7-7-7-9-9-9-10-10-10-10-10-7-7-7-7-7-7-7-7-9-9-9-10-10-10-|
D|---------------------------------------------------------------------------|
 |       * * * * * * * * * * * *  *  *  *  *  * * * * * * * * * * * *  *  *  |
 |                                                                           |
Guitar 2                                                                     |
e|------------10~----------------------------------10~-----------------------|
B|-------------------------12~----------------------------------12~----------|
G|-------11h12--------------------------------11h12--------------------------|
D|---------------------------------------------------------------------------|
A|---------------------------------------------------------------------------|
D|---------------------------------------------------------------------------|

Guitar 1
e|---------------------------------------------------------------------------|
B|---------------------------------------------------------------------------|
G|---------------------------------------------------------------------------|
D|-7--7----------------------------------------------------------------------|
A|-10-10-10-10-10-10-10-10-10-10-7-7-7-7-7-7-7-7-10-10-10-10-10-10-10-10-7-7-|
D|-------10-10-10-10-10-10-10-10-7-7-7-7-7-7-7-7-10-10-10-10-10-10-10-10-7-7-|
 | *  *  *  *  *  *  *  *  *  *  * * * * * * * * *  *  *  *  *  *  *  *  * * |
 |                                                                           |
Guitar 2                                                                     |
e|---------------------------------------------------------------------------|
B|-------------10----------------12-10~----------------10----------------12--|
G|-------11h12-----------------------------------11h12-----------------------|
D|---------------------------------------------------------------------------|
A|---------------------------------------------------------------------------|
D|---------------------------------------------------------------------------|

Guitar 1
e|---------------------------------------------------------------------------|
B|---------------------------------------------------------------------------|
G|-------7-7-7---------------------------------------------------------------|
D|-------7-7-7-9-9-9-9-9-9-9-9-7-7-7-7--7--7--7--7--9-9-9-9-9-9-9-9-7-7-7-7--|
A|-7-7-7-5-5-5-7-7-7-7-7-7-7-7-9-9-9-10-10-10-10-10-7-7-7-7-7-7-7-7-9-9-9-10-|
D|-7-7-7---------------------------------------------------------------------|
 | * * *       * * * * * * * * * * * *  *  *  *  *  * * * * * * * * * * * *  |
 |                                                                           |
Guitar 2                                                                     |
e|-------------------10~----------------------------------10~----------------|
B|-10~------------------------12~------------------------------------12~-----|
G|-------------11h12--------------------------------11h12--------------------|
D|---------------------------------------------------------------------------|
A|---------------------------------------------------------------------------|
D|---------------------------------------------------------------------------|

Guitar 1
e|---------------------------------------------------------------------------|
B|---------------------------------------------------------------------------|
G|---------------------------------------------------------------------------|
D|-7--7--7--7----------------------------------------------------------------|
A|-10-10-10-10-10-10-10-10-10-10-10-10-7-7-7-7-7-7-7-7-10-10-10-10-10-10-10--|
D|-------------10-10-10-10-10-10-10-10-7-7-7-7-7-7-7-7-10-10-10-10-10-10-10--|
 | *  *  *  *  *  *  *  *  *  *  *  *  * * * * * * * * *  *  *  *  *  *  *   |
 |                                                                           |
Guitar 2                                                                     |
e|---------------------------------------------------------------------------|
B|-------------------10----------------12-10-----------------10--------------|
G|-------------11h12-----------------------------------11h12-----------------|
D|---------------------------------------------------------------------------|
A|---------------------------------------------------------------------------|
D|---------------------------------------------------------------------------|

Guitar 1
e|---------------------------------------------------------------------------|
B|---------------------------------------------------------------------------|
G|--------------7-7-7--------------------------------------------------------|
D|--------------7-7-7--------------------------------------------------------|
A|-10-7-7-7-7-7-5-5-5--------------------------------------------------------|
D|-10-7-7-7-7-7--------------------------------------------------------------|
 | *  * * * * *                                                              |
 |                                                                           |
Guitar 2                                                                     |
e|---------------------------------------------------------------------------|
B|----12-10~---------------8p7--7~-------------------------------------------|
G|---------------------------------------------------------------------------|
D|-----------------------9---------------------------------------------------|
A|--------------------7------------------------------------------------------|
D|---------------------------------------------------------------------------|

[Chorus]

Guitar 1
e|---------------------------------------------------------------------------|
B|---------------------------------------------------------------------------|
G|-----------------------------------------------------------------5---5---5-|
D|-2---2---2----2~--2----2-2---2---5---5---5----5~--5----5-5---5---5---5---5-|
A|-2---2---2----2~--2----2-2---2---5---5---5----5~--5----5-5---5---3---3---3-|
D|-2---2---2----2~--2----2-2---2---5---5---5----5~--5----5-5---5-------------|
 |                                                                           |
 |                                                                           |
Guitar 2                                                                     |
e|------------------15-14-12-14---------------------15-14-12-14--------------|
B|---------------------------------------------------------------------------|
G|-11h12p11------12----------------11h12p11------12----------------11h12p11--|
D|------------12------------------------------12-----------------------------|
A|---------------------------------------------------------------------------|
D|---------------------------------------------------------------------------|

Guitar 1
e|---------------------------------------------------------------------------|
B|---------------------------------------------------------------------------|
G|---5~--5----5-5---5---2---2---2----2~--7-7-x-7-7-7-7-----------------------|
D|---5~--5----5-5---5---2---2---2----2~--7-7-x-7-7-7-7-2---2---2----2~--2----|
A|---3~--3----3-3---3---0---0---0----0~--5-5-x-5-5-5-5-2---2---2----2~--2----|
D|-----------------------------------------------------2---2---2----2~--2----|
 |                                                                           |
 |                                                                           |
Guitar 2                                                                     |
e|-------15-14-12-14----------------------------------------------------15-14|
B|---------------------------------------------------------------------------|
G|----12-----------------------------------------------11h12p11------12------|
D|-12-------------------------------------------------------------12---------|
A|---------------------------------------------------------------------------|
D|---------------------------------------------------------------------------|

Guitar 1
e|---------------------------------------------------------------------------|
B|---------------------------------------------------------------------------|
G|-------------------------------------------2---2---2----2~--2----2-2---2---|
D|-2-2---2---5---5---5----5~--5----5-5---5---2---2---2----2~--2----2-2---2---|
A|-2-2---2---5---5---5----5~--5----5-5---5---0---0---0----0~--0----0-0---0---|
D|-2-2---2---5---5---5----5~--5----5-5---5-----------------------------------|
 |                                                                           |
 |                                                                           |
Guitar 2                                                                     |
e|--12-14---------------------15-14-12-14---------------------15-14-12-14----|
B|---------------------------------------------------------------------------|
G|-----------11h12p11------12----------------11h12p11------12----------------|
D|----------------------12------------------------------12-------------------|
A|---------------------------------------------------------------------------|
D|---------------------------------------------------------------------------|

Guitar 1
e|---------------------------------------------------------------------------|
B|---------------------------------------------------------------------------|
G|-5---5---5----5~--7-7-x-7-7-7-7--------------------------------------------|
D|-5---5---5----5~--7-7-x-7-7-7-7--------------------------------------------|
A|-3---3---3----3~--5-5-x-5-5-5-5--------------------------------------------|
D|---------------------------------------------------------------------------|
 |                                                                           |
 |                                                                           |
Guitar 2                                                                     |
e|---------------------------------------------------------------------------|
B|---------------------------------------------------------------------------|
G|---------------------------------------------------------------------------|
D|---------------------------------------------------------------------------|
A|---------------------------------------------------------------------------|
D|---------------------------------------------------------------------------|

[Second Verse]

Guitar 1
e|---------------------------------------------------------------------------|
B|---------------------------------------------------------------------------|
G|---------------------------------------------------------------------5-5-5-|
D|-2-2---2-2---2-2-------------------2-2---2-2---2-2-------------------5-5-5-|
A|-2-2---2-2---2-2-------------------2-2---2-2---2-2-------------------3-3-3-|
D|-2-2---2-2---2-2-------------------2-2---2-2---2-2-------------------------|
 |                                                                           |
 |                                                                           |
Guitar 2                                                                     |
e|-------------------0-0-0-0-0-0-0---------------------0-0-0-2-2-2-2-2-3-3-3-|
B|-------------------5-5-5-5-5-5-5---------------------5-5-5-5-5-5-5-5-5-5-5-|
G|---------------------------------------------------------------------------|
D|---------------------------------------------------------------------------|
A|---------------------------------------------------------------------------|
D|---------------------------------------------------------------------------|

Guitar 1
e|---------------------------------------------------------------------------|
B|---------------------------------------------------------------------------|
G|-5-5-5-5-5-5-5-5-5-5-5-5-5-2-2-2-2-2-2-2-2-2-2-2-2-------------------------|
D|-5-5-5-5-5-5-5-5-5-5-5-5-5-2-2-2-2-2-2-2-2-2-2-2-2-x-0---2-2---2-2---2-2---|
A|-3-3-3-3-3-3-3-3-3-3-3-3-3-0-0-0-0-0-0-0-0-0-0-0-0-x-0---2-2---2-2---2-2---|
D|---------------------------------------------------x-0---2-2---2-2---2-2---|
 |                                                                           |
 |                                                                           |
Guitar 2                                                                     |
e|-3-3-3-3-3-2-2-2-2-2-3-2-0-5-5-5-5-5-5-5-5-5-5-5-5---0---------------------|
B|-5-5-5-5-5-5-5-5-5-5-5-5-5-5-5-5-5-5-5-5-5-5-5-5-5---3---------------------|
G|---------------------------------------------------------------------------|
D|---------------------------------------------------------------------------|
A|---------------------------------------------------------------------------|
D|---------------------------------------------------------------------------|

Guitar 1
e|---------------------------------------------------------------------------|
B|---------------------------------------------------------------------------|
G|-------------------------------------------------5-5-5-5-5-5-5-5-5-5-5-5-5-|
D|-----------------2-2---2-2---2-2-----------------5-5-5-5-5-5-5-5-5-5-5-5-5-|
A|-----------------2-2---2-2---2-2-----------------3-3-3-3-3-3-3-3-3-3-3-3-3-|
D|-----------------2-2---2-2---2-2-------------------------------------------|
 |                                                                           |
 |                                                                           |
Guitar 2                                                                     |
e|-0-0-0-0-0-0-0---------------------0-0-0-2-2-2-2-3-3-3-3-3-3-3-3-2-2-2-2-2-|
B|-5-5-5-5-5-5-5---------------------5-5-5-5-5-5-5-5-5-5-5-5-5-5-5-5-5-5-5-5-|
G|---------------------------------------------------------------------------|
D|---------------------------------------------------------------------------|
A|---------------------------------------------------------------------------|
D|---------------------------------------------------------------------------|

Guitar 1
e|---------------------------------------------------------------------------|
B|---------------------------------------------------------------------------|
G|-5-5-5-7-7-7-7-7-7-7-7-7-7-7-7---------------------------------------------|
D|-5-5-5-7-7-7-7-7-7-7-7-7-7-7-7-x-0---2~----------------2~------------------|
A|-3-3-3-5-5-5-5-5-5-5-5-5-5-5-5-x-0---2~----------------2~------------------|
D|-------------------------------x-0---2~----------------2~------------------|
 |                                                                           |
 |                                                                           |
Guitar 2                                                                     |
e|-3-2-0-5-5-5-5-5-5-5-5-5-5-5-5---2-----------------------------------------|
B|-5-5-5-5-5-5-5-5-5-5-5-5-5-5-5---3-----------------------------------------|
G|---------------------------------------------------------------------------|
D|---------------------------------------------------------------------------|
A|---------------------------------------------------------------------------|
D|---------------------------------------------------------------------------|

[Chorus]

Guitar 1
e|---------------------------------------------------------------------------|
B|---------------------------------------------------------------------------|
G|-----------------------------------------------------------------5---5---5-|
D|-2---2---2----2~--2----2-2---2---5---5---5----5~--5----5-5---5---5---5---5-|
A|-2---2---2----2~--2----2-2---2---5---5---5----5~--5----5-5---5---3---3---3-|
D|-2---2---2----2~--2----2-2---2---5---5---5----5~--5----5-5---5-------------|
 |                                                                           |
 |                                                                           |
Guitar 2                                                                     |
e|------------------15-14-12-14---------------------15-14-12-14--------------|
B|---------------------------------------------------------------------------|
G|-11h12p11------12----------------11h12p11------12----------------11h12p11--|
D|------------12------------------------------12-----------------------------|
A|---------------------------------------------------------------------------|
D|---------------------------------------------------------------------------|

Guitar 1
e|---------------------------------------------------------------------------|
B|---------------------------------------------------------------------------|
G|---5~--5----5-5---5---2---2---2----2~--7-7-x-7-7-7-7-----------------------|
D|---5~--5----5-5---5---2---2---2----2~--7-7-x-7-7-7-7-2---2---2----2~--2----|
A|---3~--3----3-3---3---0---0---0----0~--5-5-x-5-5-5-5-2---2---2----2~--2----|
D|-----------------------------------------------------2---2---2----2~--2----|
 |                                                                           |
 |                                                                           |
Guitar 2                                                                     |
e|-------15-14-12-14----------------------------------------------------15-14|
B|---------------------------------------------------------------------------|
G|----12-----------------------------------------------11h12p11------12------|
D|-12-------------------------------------------------------------12---------|
A|---------------------------------------------------------------------------|
D|---------------------------------------------------------------------------|

Guitar 1
e|---------------------------------------------------------------------------|
B|---------------------------------------------------------------------------|
G|-------------------------------------------2---2---2----2~--2----2-2---2---|
D|-2-2---2---5---5---5----5~--5----5-5---5---2---2---2----2~--2----2-2---2---|
A|-2-2---2---5---5---5----5~--5----5-5---5---0---0---0----0~--0----0-0---0---|
D|-2-2---2---5---5---5----5~--5----5-5---5-----------------------------------|
 |                                                                           |
 |                                                                           |
Guitar 2                                                                     |
e|--12-14---------------------15-14-12-14---------------------15-14-12-14----|
B|---------------------------------------------------------------------------|
G|-----------11h12p11------12----------------11h12p11------12----------------|
D|----------------------12------------------------------12-------------------|
A|---------------------------------------------------------------------------|
D|---------------------------------------------------------------------------|

Guitar 1
e|---------------------------------------------------------------------------|
B|---------------------------------------------------------------------------|
G|-5---5---5----5~--7-7-x-7-7-7-7--------------------------------------------|
D|-5---5---5----5~--7-7-x-7-7-7-7--------------------------------------------|
A|-3---3---3----3~--5-5-x-5-5-5-5--------------------------------------------|
D|---------------------------------------------------------------------------|
 |                                                                           |
 |                                                                           |
Guitar 2                                                                     |
e|---------------------------------------------------------------------------|
B|---------------------------------------------------------------------------|
G|---------------------------------------------------------------------------|
D|---------------------------------------------------------------------------|
A|---------------------------------------------------------------------------|
D|---------------------------------------------------------------------------|

[Bridge]

Guitar 1
e|---------------------------------------------------------------------------|
B|---------------------------------------------------------------------------|
G|---------------------------------------------------------------------------|
D|-2-2~---------------2-2~-----------------2-2~-----------------2-2~---------|
A|-2-2~---------------2-2~-----------------2-2~-----------------2-2~---------|
D|-2-2~---------------2-2~-----------------2-2~-----------------2-2~---------|
 |                                                                           |
 |                                                                           |
Guitar 2                                                                     |
e|---------------------------------------------------------------------------|
B|------3-----3---3-3-------3------3---3-3-------3------3---3-3------3-------|
G|---------------------------------------------------------------------------|
D|---------------------------------------------------------------------------|
A|---------------------------------------------------------------------------|
D|--------2-2~--2-------------2-2~---2-------------2-2~---2------------2-2~--|

Guitar 1
e|---------------------------------------------------------------------------|
B|---------------------------------------------------------------------------|
G|----------------------------------------------------------7-7-----7-7---7--|
D|---------2-2~-----------------2-2~----------------2---2-2/x-x-2-2/x-x-2/x--|
A|---------2-2~-----------------2-2~----------------2---2-2/5-5-2-2/5-5-2/5--|
D|---------2-2~-----------------2-2~----------------2---2-2/----2-2/----2/---|
 |                                                                           |
 |                                                                           |
Guitar 2                                                                     |
e|---------------------------------------------------------------------------|
B|-3---3-3-------3------3---3-3------3------3---3-3--------------------------|
G|---------------------------------------------------------------------------|
D|---------------------------------------------------------------------------|
A|---------------------------------------------------------------------------|
D|---2-------------2-2~---2------------2-2~---2------------------------------|

Guitar 1
e|---------------------------------------------------------------------------|
B|---------------------------------------------------------------------------|
G|-7-7---------7-7-----7-7---7-7-7---------7-7-----7-7---7-7-7---------7-7---|
D|-x-x-2---2-2/x-x-2-2/x-x-2/x-x-x-2---2-2/x-x-2-2/x-x-2/x-x-x-2---2-2/x-x-2-|
A|-5-5-2---2-2/5-5-2-2/5-5-2/5-5-5-2---2-2/5-5-2-2/5-5-2/5-5-5-2---2-2/5-5-2-|
D|-----2---2-2/----2-2/----2/------2---2-2/----2-2/----2/------2---2-2/----2-|
 |                                                                           |
 |                                                                           |
Guitar 2                                                                     |
e|---------------------------------------------------------------------------|
B|---------------------------------------------------------------------------|
G|---------------------------------------------------------------------------|
D|---------------------------------------------------------------------------|
A|---------------------------------------------------------------------------|
D|---------------------------------------------------------------------------|

Guitar 1                                                                     
e|---------------------------------------------------------------------------|
B|---------------------------------------------------------------------------|
G|---7-7---7-7-7---------7-7-----7-7---7-7-7---------7-7-----7-7---7-7-7-----|
D|-2/x-x-2/x-x-x-2---2-2/x-x-2-2/x-x-2/x-x-x-2---2-2/x-x-2-2/x-x-2/x-x-x-2---|
A|-2/5-5-2/5-5-5-2---2-2/5-5-2-2/5-5-2/5-5-5-2---2-2/5-5-2-2/5-5-2/5-5-5-2---|
D|-2/----2/------2---2-2/----2-2/----2/------2---2-2/----2-2/----2/------2---|
 |                                                                           |
 |                                                                           |
Guitar 2                                                                     |
e|---------------------------------------------------------------------------|
B|---------------------------------------------------------------------------|
G|---------------------------------------------------------------------------|
D|---------------------------------------------------------------------------|
A|---------------------------------------------------------------------------|
D|---------------------------------------------------------------------------|

Guitar 1
e|---------------------------------------------------------------------------|
B|---------------------------------------------------------------------------|
G|-----7-7-----7-7---7-7-7---------7-7-----7-7---7-7-7-----------------------|
D|-2-2/x-x-2-2/x-x-2/x-x-x-2---2-2/x-x-2-2/x-x-2/x-x-x-----------------------|
A|-2-2/5-5-2-2/5-5-2/5-5-5-2---2-2/5-5-2-2/5-5-2/5-5-5-----------------------|
D|-2-2/----2-2/----2/------2---2-2/----2-2/----2/----------------------------|
 |                                                                           |
 |                                                                           |
Guitar 2                                                                     |
e|---------------------------------------------------------------------------|
B|---------------------------------------------------------------------------|
G|-------------------------7-9-9-7-9-9-7-9-9-9-9-9b9b9b9b9b------------------|
D|---------------------------------------------------------------------------|
A|---------------------------------------------------------------------------|
D|---------------------------------------------------------------------------|

[Chorus/Outro]

Guitar 1
e|---------------------------------------------------------------------------|
B|---------------------------------------------------------------------------|
G|-------------------------------------------------------------5---5---5-----|
D|-----2----2---2----2-2---2---5---5---5----5~--5----5-5---5---5---5---5-----|
A|-5---2----2---2----2-2---2---5---5---5----5~--5----5-5---5---3---3---3-----|
D|-----2----2---2----2-2---2---5---5---5----5~--5----5-5---5-----------------|
 |                                                                           |
 |                                                                           |
Guitar 2                                                                     |
e|--------------15-14-12-14---------------------15-14-12-14------------------|
B|-----------12--------------------------------------------------------------|
G|-----------------------------11h12p11------12----------------11h12p11------|
D|------12--------------------------------12------------------------------12-|
A|---------------------------------------------------------------------------|
D|-12------------------------------------------------------------------------|

Guitar 1
e|---------------------------------------------------------------------------|
B|---------------------------------------------------------------------------|
G|-5~--5----5-5---5---2---2---2----2~--7-7-x-7-7-7-7-------------------------|
D|-5~--5----5-5---5---2---2---2----2~--7-7-x-7-7-7-7-2---2---2----2~--2----2-|
A|-3~--3----3-3---3---0---0---0----0~--5-5-x-5-5-5-5-2---2---2----2~--2----2-|
D|---------------------------------------------------2---2---2----2~--2----2-|
 |                                                                           |
 |                                                                           |
Guitar 2                                                                     |
e|-----15-14-12-14--------------------------------------------------15-14-12-|
B|---------------------------------------------------------------------------|
G|--12-----------------------------------------------11h12p11----12----------|
D|------------------------------------------------------------12-------------|
A|---------------------------------------------------------------------------|
D|---------------------------------------------------------------------------|

Guitar 1
e|---------------------------------------------------------------------------|
B|---------------------------------------------------------------------------|
G|-----------------------------------------2---2---2----2~--2----2-2---2-----|
D|-2---2---5---5---5----5~--5----5-5---5---2---2---2----2~--2----2-2---2-----|
A|-2---2---5---5---5----5~--5----5-5---5---0---0---0----0~--0----0-0---0-----|
D|-2---2---5---5---5----5~--5----5-5---5-------------------------------------|
 |                                                                           |
 |                                                                           |
Guitar 2                                                                     |
e|-14---------------------15-14-12-14---------------------15-14-12-14--------|
B|---------------------------------------------------------------------------|
G|---------11h12p11----12------------------11h12p11----12--------------------|
D|------------------12------------------------------12-----------------------|
A|---------------------------------------------------------------------------|
D|---------------------------------------------------------------------------|

Guitar 1
e|---------------------------------------------------------------------------|
B|---------------------------------------------------------------------------|
G|-5---5---5----5~--7-7-x-7-7-7-7--------------------------------------------|
D|-5---5---5----5~--7-7-x-7-7-7-7---------2~---------------------------------|
A|-3---3---3----3~--5-5-x-5-5-5-5---------2~---------------------------------|
D|--------------------------------12\2----2~---------------------------------|
 |                                                                           |
 |                                                                           |
Guitar 2                                                                     |
e|----------------------------------------14~--------------------------------|
B|--------------------------------15\5/15-15~--------------------------------|
G|---------------------------------------------------------------------------|
D|---------------------------------------------------------------------------|
A|---------------------------------------------------------------------------|
D|---------------------------------------------------------------------------|


************************************

| *   Palm mute
| b   Bend
| x   Dead note 
| h   Hammer-on
| p   Pull-off
| /   Slide up
| \   Slide down
| ~   Vibrato

************************************
Suggest correction
Give kudos to tab author, rate the tab!
1 2 3 4 5
comments
print report bad tab
guest
You may want to rate the tab now too:
select rating
Wanna post a correction for this tab? Suggest correction