Oops, an error
Loading. Please wait.

Contagious Chemistry Bass Tab

version 1
version 1

Whole song

993 views 1 this week
no commentswrite comment
1 2 3 4 5
excellent!
x 3
add to favorites
launch autoscroll
font size
0
reset
guitar tuner
Autoscroll
slow
fast
+/-
esc
set tempo
stop
Help us to improve Ultimate-Guitar.com Take our survey!
×
Author
Contagious Chemistry - You Me at Six

Verse (0:26)
G|-----------------------------------------------|  |------|
D|-----------------------------------------------|x2|------|
A|-4-4-4-4h6p4-0-0-0-0h2p0--------------2222-----|  |-4~\2-|
D|-------------------------6-6-6-6h8p6------4444-|  |------|

Chorus
G|--------------------------------------------|
D|---------------------------------------21---|x2
A|-4444-2222-0000-0000-4444-2222-0000-00---42-|
D|--------------------------------------------|

Verse x2

Chorus x2

Bridge
G|----------------------|
D|----------------------|x4
A|-4444-2222-0000-0000--|
D|----------------------|

G|---------------------|
D|---------------------|x3
A|-44---22----------2--|
D|-----------4442424---|

G|-------------------------------------|
D|-------------------------------------|
A|-44---22-----------------------------|
D|-----------44444444-6666666666666666-|

Outro
G|--------------------|
D|--------------------|
A|-4-4-4-4-4-4-4-2-4--|
D|--------------------|
Suggest correction
Give kudos to tab author, rate the tab!
1 2 3 4 5
comments
print report bad tab
guest
You may want to rate the tab now too:
select rating
Wanna post a correction for this tab? Suggest correction